Forbidden Land (Final Fantasy III) Guitar Tab

Submitted: Mar 13, 2016 by wolfrain64 (Last updated: Mar 13, 2016)

5
Average: 5 (6 votes)
Download | Listen
Game: Final Fantasy III
Composer(s): Nobuo Uematsu
Style: Arrangement, Fingerstyle
Series: Final Fantasy

Click here for a video example.

AutoScroll: Slow | Medium | Fast
Song: Forbidden Land Eureka                               
Game: Final Fantasy III
Original Composer: Nobuo Uematsu
Tabber: Wolfrain64
Date: 20-6-2015

Acoustic Guitar (Capo 5)
Fingerstyle


     S S S S S S S S S S S S S S S S    S S S S S S S S S S S S S S S S  
E||----------------------------------|----------------------------------|
B||--------0-1-------3---1-0-1-------|------------------------0-1-------|
G||------2-------2---------------2---|--------0-2-----------2-------2---|
D||----2-------2---2---2-------2---2-|------3-------3-----2-------2---2-|
A||--0-------0-------0-------0-------|----3-------3---3-0-------0-------|
E||----------------------------------|--1-------1-----------------------|


  S S S S S S S S S S S S S S S S    S S S S S S S S S S S S S S S S  
----------------------------------|--------------------------0-------|
--------0-1-------3---1-0-1-------|------------------1---1-3-----1---|
------2-------2---------------2---|--------0-2-----------------------|
----2-------2---2---2-------2---2-|------3-------3-----2-------2---2-|
--0-------0-------0-------0-------|----3-------3---3-3-------3-------|
----------------------------------|--1-------1-----------------------|


  S S S S S S S S S S S S S S S S    S S S S S S S S S S S S S S S S  
--------------0---1---0-------0---|----------------------------------|
--0---0-1-3-------------3-0-------|--3---1-0-------------------------|
----------------------------------|----------0-------0-------0-------|
----0-------0---0---0-------0---0-|----3-------3---3---2---2---2---2-|
----------------------------------|----------------------------------|
--3-------3-------3---3-3-3-------|--1-------1---1---0---0---0---0---|


  S S S S S S S S S S S S S S S S    S S S S S S S S S S S S S S S S  
--------------0---1---0-------0---|--------------0-------------------|
--0---0-1-3-------------3-0-------|--3-------3-3---3-0-------0-------|
----------------------------------|----------------------------------|
----0-------0---0---0-------0---0-|----3---3-----------2---2---2---2-|
----------------------------------|----------------------------------|
--3-------3-------3---3-3-3-------|--1---1---1-1-1---0---0---0---0---|

  ^                                      
  W                                      
--0----------------||
--1----------------||
--2----------------|| End
--2----------------||
--0----------------||
-------------------||




Duration Legend
---------------
W - whole
H - half
Q - quarter
E - 8th
S - 16th
T - 32nd
X - 64th
. - note dotted
|-n-|  - n-tuplets


Tablature Legend
----------------
L - tied note
x - dead note
g - grace note
(n) - ghost note
> - accentuded note
NH - natural harmonic
AH - artificial harmonic
TH - tapped harmonic
SH - semi harmonic
PH - pitch harmonic
h - hammer on
p - pull off
b - bend
br - bendRelease
pb - preBend
pbr - preBendRelease
brb - bendReleaseBend
\n/ - tremolo bar dip
\n - tremolo bar dive
-/n - tremolo bar Release up
/n\ - tremolo bar inverted dip
/n - tremolo bar return
-\n - tremolo bar Release down
S - shift slide
s - legato slide
/ -  slide into from below or out of upwards
\ -  slide into from above or out of downwards
~ - vibrato
W - wide vibrato
tr - trill
TP - tremolo picking
T - tapping
S - slap
P - pop
< - fade in
^ - brush up
v - brush down
Login or Register to remove this ad.

2 comments on Forbidden Land

One of my favorite tabs on

5

One of my favorite tabs on here. I like this arrangement more than the original track -- in fact, I'm not quite sure how you managed to condense it like this. But it really works.

Thanks! This is one of my

Thanks! This is one of my favorite own arrangements and I'm happy someone appreciated it.
I was just trying to make it more comfortable to play, as it was complicated on E standard.