Eternal Wind (Final Fantasy III) Guitar Tab

Submitted: Jan 27, 2014 by The Ripper

4.75
Average: 4.8 (4 votes)
Download | Listen
Game: Final Fantasy III
Composer(s): Nobuo Uematsu
Style: Arrangement, Fingerstyle
Series: Final Fantasy

This song is also called 悠久の風

AutoScroll: Slow | Medium | Fast
                                              Eternal wind
                                           Final Fantasy III
                                                  NES 
                                       Composed  by Nobuo Uematsu
                                Tabbed by the Ripper  January 27th 2014


     S S S S S S S S S S S S S S S S    S S S S S S S S S S S S S S S S  
E||----------------------------------|----------------------------------|
B||------------------1---0-----------|------------------1---0-----------|
G||----0-----------2---------0-2---2-|----0-----------2---------0-2---2-|
D||--0---0-2-----------2---2---------|--0---0-2-----------2---2---------|
A||----------3-0---------------------|----------3-0---------------------|
E||----------------------------------|----------------------------------|


    S S E  E  S S E  E  E  E     S S E  E  S S E  E  Q     
|-----------------------3--L--|--0----------------L-------|
|---3----------------L--------|--3----------------L--1----|
|*--0----------------L--------|--0----------------L--0----|
|*--2----------------L--2-----|----------------------2----|
|---3-3-------3-3-------------|--3-3-------3-3------------|
|--------------------3-----3--|---------------------------|


   S S E  E  S S E  E  E  E     S S Q    S S H         
|---------0---------------L--|------------------------|
|--3---L---------------------|------------------------|
|--0---L---------------------|------------------------|
|----------------------2-----|------------------------|
|--0-0-------0-0----0--------|--0-0------0-0----------|
|-------------------------3--|------------------------|


   S S E  E  S S E  E  Q       S S E  E  S S E  E  Q     
|----------------------0----|---------------------------|
|--3----------------L-------|--1----------------L--3----|
|--0----------------L-------|--2----------------L-------|
|---------------------------|---------------------------|
|-------------------3--0----|---------------------------|
|--1-1-------1-1------------|--1-1-------1-1------------|


   S S E  E  S S E  E  E  E     S S Q    S S H         
|----------------------------|------------------------|
|--0----------------L--------|------------------------|
|--0----------------L--------|------------------------|
|--0----------------L--4-----|------------------------|
|-------------------2-----2--|------------------------|
|--0-0-------0-0-------------|--0-0------0-0----------|


   S S E  E  S S E  E  E  E     S S E  E  S S E  E  Q     
|----------------------3--L--|--0----------------L-------|
|--3----------------L--------|--3----------------L--1----|
|--0----------------L--------|--0----------------L--0----|
|--2----------------L--2-----|----------------------2----|
|--3-3-------3-3-------------|--3-3-------3-3------------|
|-------------------3-----3--|---------------------------|


   S S E  E  S S E  E  E  E     S S Q    S S H         
|---------0---------------L--|------------------------|
|--3---L---------------------|------------------------|
|--0---L---------------------|------------------------|
|----------------------2-----|------------------------|
|--0-0-------0-0----0--------|--0-0------0-0----------|
|-------------------------3--|------------------------|


   S S E  E  S S E  E  Q       S S E  E  S S E  E  Q     
|----------------------0----|---------------------------|
|--3----------------L-------|--1----------------L--3----|
|--0----------------L-------|--2----------------L-------|
|---------------------------|---------------------------|
|-------------------3--0----|---------------------------|
|--1-1-------1-1------------|--1-1-------1-1------------|


   S S E  E  S S E  E  E  E     S S Q    S S E  S S S S S S  
|----------------------------|------------------------0-2-4-|
|--0----------------L--------|--0----------L----0-1-3-------|
|--0----------------L--------|--1----------L----------------|
|--0----------------L--4-----|--0----------L----------------|
|-------------------2-----2--|------------------------------|
|--0-0-------0-0-------------|--0-0------0-0----------------|


   S S E  E  S S E  E  E  E     S S E  E  S S Q    Q     
|--5-------------L--0--0--3--|--5---L--8----L-7---------|
|--5-------------L-----------|--5---L--------------8----|
|--5-------------L-----------|--5---L-------------------|
|--3-3-------3-3-------------|--------------------------|
|----------------------3--L--|--8-8-------8-8-----------|
|----------------------------|---------------------8----|


   S S E  E  S S E  E  E  E     S S E  E  S S E  E  Q     
|--5-------------L--0--0-----|--0-------------L-----3----|
|--3-------------L--------3--|--0-------------L----------|
|--4-------------L-----------|--0-------------L----------|
|----------------------------|---------------------------|
|----------------------2--L--|----------------------2----|
|--0-0-------0-0-------------|--0-0-------0-0------------|


   S S E  E  S S E  E  E  E     S S E  E  S S Q    Q     
|--3------L---------------0--|--1---L--1----L-0---------|
|--1------L--3-L-L--3--3-----|--1---L--------------3----|
|--2------L------------------|--2---L-------------------|
|--0-0-------0-0-------------|--0-0-------0-0-----------|
|----------------------0--L--|---------------------0----|
|----------------------------|--------------------------|


   S S E  E  S S E  E  Q       S S E  E  S S H         
|--0-------------------L----|--4-------------L--------|
|--0-------------------L----|--5-------------L--------|
|--1-------------------L----|-------------------------|
|----------------------0----|--2-2-------2-2----------|
|--4-4-------4-4------------|-------------------------|
|---------------------------|-------------------------|


   S S E  E  S S E  E  E  E     S S E  E  S S Q    Q     
|--5-------------L--0--0--3--|--5---L--8----L-7---------|
|--5-------------L-----------|--5---L--------------8----|
|--5-------------L-----------|--5---L-------------------|
|--3-3-------3-3-------------|--------------------------|
|----------------------3--L--|--8-8-------8-8-----------|
|----------------------------|---------------------8----|


   S S E  E  S S E  E  E  E     S S E  E  S S E  E  Q     
|--5-------------L--0--0-----|--0-------------L-----3----|
|--3-------------L--------3--|--0-------------L----------|
|--4-------------L-----------|--0-------------L----------|
|----------------------------|---------------------------|
|----------------------2--L--|----------------------2----|
|--0-0-------0-0-------------|--0-0-------0-0------------|


   S S E  E  S S E  E  E  E     S S E  E  S S Q    Q     
|--3------L---------------0--|--1---L--1----L-0---------|
|--1------L--3-L-L--3--3-----|--1---L--------------3----|
|--2------L------------------|--2---L-------------------|
|--0-0-------0-0-------------|--0-0-------0-0-----------|
|----------------------0--L--|---------------------0----|
|----------------------------|--------------------------|


   S S E  E  S S E  E  Q       S S E  E  S S H           
|--0-------------------L----|--4-------------L---------||
|--0-------------------L----|--5-------------L---------||
|--1-------------------L----|-------------------------*||
|----------------------0----|--2-2-------2-2----------*||
|--4-4-------4-4------------|--------------------------||
|---------------------------|--------------------------||



                         Legend
	             ---------------
			W - whole
			H - half
			Q - quarter
			E - 8th
			S - 16th
			T - 32nd
			X - 64th
			. - note dotted
			|-n-|  - n-tuplets
			L - tied note


Login or Register to remove this ad.