Ads

Elia, The Maiden Of Water (Final Fantasy III) Guitar Tab

Submitted: Dec 04, 2010 by hashel (Last updated: Aug 25, 2011)

5
Average: 5 (1 vote)
Download | Listen
Game: Final Fantasy III
Composer(s): Nobuo Uematsu
Style: 2 or more instruments, Transcription
Series: Final Fantasy

Click here for a video example.

AutoScroll: Slow | Medium | Fast
Melody
               Q    Q.     E      Q    H           Q    E  E  E  E     Q    E  E  E  E   
E||-------||---0----7------5--|--10----3--------|-------1--0--1--8--|-------0-----0--7--|
B||-------||------------------|-----------------|-------------------|----------3--------|
G||-------||*-----------------|-----------------|-------------------|-------------------|
D||-------||*-----------------|-----------------|-------------------|-------------------|
A||-------||------------------|-----------------|-------------------|-------------------|
E||-------||------------------|-----------------|-------------------|-------------------|


  Q    Q.     E      Q    H           Q    E  E  E  E     Q    Q    Q     
--0----7------5--|--10----3--------|-------1--0--1--8--|--8----5----1----|
-----------------|-----------------|-------------------|-----------------|
-----------------|-----------------|-------------------|-----------------|
-----------------|-----------------|-------------------|-----------------|
-----------------|-----------------|-------------------|-----------------|
-----------------|-----------------|-------------------|-----------------|


  H        Q       H.              H.              Q    Q.     E     Q    Q.     E   
-----------0----|--0------------|---------------|--8----8------8--|--7----7------7--|
--3-------------|---------------|---------------|-----------------|-----------------|
----------------|---------------|---------------|-----------------|-----------------|
----------------|---------------|---------------|-----------------|-----------------|
----------------|---------------|---------------|-----------------|-----------------|
----------------|---------------|---------------|-----------------|-----------------|


  Q    E  E  E  E     Q    H            Q     Q.      E      Q     Q.      E   
--7----5--1--------|--1----0--------|--------------------|--12----12------15--|
-------------1--3--|----------------|--13----13------15--|--------------------|
-------------------|----------------|--------------------|--------------------|
-------------------|----------------|--------------------|--------------------|
-------------------|----------------|--------------------|--------------------|
-------------------|----------------|--------------------|--------------------|


   Q     Q     E   E      H         E   E      H.                          
--17----17----17--15--|--17--------17--15--|--17------------|------------||
----------------------|--------------------|----------------|------------||
----------------------|--------------------|----------------|-----------*||
----------------------|--------------------|----------------|-----------*||
----------------------|--------------------|----------------|------------||
----------------------|--------------------|----------------|------------||




Harmony
             E  E  E  E  E  E     E  E  E  E  E  E     E  E  E  E  E  E   
E||-----||---------------------|--------------------|--------------------|
B||-----||---------1-----1-----|--------0-----0-----|--------------------|
G||-----||*-----2-----2-----2--|-----0-----0-----0--|--------2-----2-----|
D||-----||*--3-----------------|--2-----------------|--0--3-----3-----3--|
A||-----||---------------------|--------------------|--------------------|
E||-----||---------------------|--------------------|--------------------|


  E  E  E  E  E  E     E  E  E  E  E  E     E  E  E  E  E  E     E  E  E  E  E  E   
--------------------|--------------------|--------------------|--------------------|
--------------------|--------1-----1-----|--------0-----0-----|--------------------|
--------0-----0-----|-----2-----2-----2--|-----0-----0-----0--|--------2-----2-----|
-----2-----2-----2--|--3-----------------|--2-----------------|--0--3-----3-----3--|
--3-----------------|--------------------|--------------------|--------------------|
--------------------|--------------------|--------------------|--------------------|


  E  E  E  E  E  E     E  E  E  E  E  E     E  E  E  E  E  E     E  E  E  E  E  E   
--------------------|--------------------|--------------------|--------------------|
--------------------|--------------------|--------------------|--------------------|
--------------------|--------------------|--------0-----0-----|--------0-----0-----|
-----0--3--0--3--0--|-----0--3--0--3--0--|-----2-----2-----2--|-----2-----2-----2--|
--1-----------------|--------------------|--3-----------------|--3-----------------|
--------------------|--4-----------------|--------------------|--------------------|


  E  E  E  E  E  E     E  E  E  E  E  E     E  E  E  E  E  E     E  E  E  E  E  E   
--------0-----0-----|--------0-----0-----|--------------------|--------0-----------|
-----1-----1-----1--|-----1-----1-----1--|--------1-----1-----|-----------3--1--0--|
--2-----------------|--0-----------------|-----2-----2-----2--|-----0--------------|
--------------------|--------------------|--3-----------------|--------------------|
--------------------|--------------------|--------------------|--3-----------------|
--------------------|--------------------|--------------------|--------------------|


  E  E  E  E  E  E     E  E  E  E  E  E     E  E  E  E  E  E     E  E  E  E  E  E   
--------0-----0-----|--------0-----0-----|--------1-----1-----|--------------------|
-----1-----1-----1--|-----1-----1-----1--|-----3-----3-----3--|--------3-----3-----|
--2-----------------|--0-----------------|--3-----------------|--0--2-----2-----2--|
--------------------|--------------------|--------------------|--------------------|
--------------------|--------------------|--------------------|--------------------|
--------------------|--------------------|--------------------|--------------------|


  E  E  E  E  E  E     E  E  E  E  E  E     
--------0-----0-----|--------0------------||
-----2-----2-----2--|-----2-----2---------||
--2-----------------|--2-----------2-----*||
--------------------|-----------------2--*||
--------------------|---------------------||
--------------------|---------------------||



Chords
     Q    Q    Q         H.              H.              H.              H.            
E||-----------------||---1------------|--0------------|--1------------|--0------------|
B||------------x----||---1------------|--0------------|--3------------|--1------------|
G||-----------------||*--2------------|--0------------|--2------------|--0------------|
D||-------x---------||*--3------------|--2------------|--0------------|--2------------|
A||-----------------||---3------------|--2------------|---------------|--3------------|
E||--x--------------||---1------------|--0------------|---------------|---------------|


  H.              H.              H.              H.              H.            
--1------------|--0------------|--1------------|--1------------|--4------------|
--1------------|--0------------|--3------------|--3------------|--6------------|
--2------------|--0------------|--2------------|--1------------|--4------------|
--3------------|--2------------|--0------------|--3------------|--6------------|
--3------------|--2------------|---------------|--1------------|--5------------|
--1------------|--0------------|---------------|---------------|--4------------|


  H.              H.              H.              H.              H.            
--0------------|---------------|--0------------|--0------------|--1------------|
--1------------|---------------|--1------------|--1------------|--1------------|
--0------------|---------------|--2------------|--0------------|--2------------|
--2------------|---------------|--2------------|--2------------|--3------------|
--3------------|---------------|--0------------|--3------------|--3------------|
---------------|---------------|---------------|--3------------|--1------------|


  H.              H.              H.              H.              H.            
--0------------|--0------------|--0------------|--1------------|--3------------|
--1------------|--1------------|--1------------|--3------------|--3------------|
--0------------|--2------------|--0------------|--1------------|--3------------|
--2------------|--2------------|--2------------|--3------------|--5------------|
--3------------|--0------------|--3------------|--1------------|--5------------|
---------------|---------------|--3------------|---------------|--3------------|


  H.              H.              
--0------------|----------------||
--2------------|----------------||
--2------------|---------------*||
--2------------|---------------*||
--0------------|----------------||
---------------|----------------||
Login or Register to remove this ad.

1 comment on Elia, The Maiden Of Water

Oh, i'm happy someone like it

Oh, i'm happy someone like it ^^
The 1st part of the melody is maybe easier to play on the B string...
At the beguining i always use some "X" notes to give the start, i hope it's note a problem