Ads

Deep Under the Water (Final Fantasy III) Guitar Tab

Submitted: Nov 25, 2014 by JordanVS

5
Average: 5 (1 vote)
Download | Listen
Game: Final Fantasy III
Composer(s): Nobuo Uematsu
Style: Arrangement, Fingerstyle
Series: Final Fantasy

This song is also called The Submarine Nautilus

AutoScroll: Slow | Medium | Fast
Deep Under the Water                                          
The Submarine Nautilus
Final Fantasy III
Nobuo Uematsu
JordanVS

-12/8
-Tempo : 74

     E  E  E  E  E  E  E  E  E  E  E  E     E  E  E  E  E  E  E  E  E  E  E  E   
E||--2--------L-----0--5-----------------|--------------------0-----------------|
B||--------0--3-----0-----------3--------|--2-----0--2-----0-----------0--------|
G||-----0-----------------0--------4-----|-----0-----------------0--------0-----|
D||--0-----------0-----0-----0--------5--|--2-----------2-----2-----2--------2--|
A||--------------------------------------|--------------------------------------|
E||--------------------------------------|--------------------------------------|


  E  E  E  E  E  E  E  E  E  E  E  E     E  E  E  E  E  E  E  E  E  E  E  E   
-----------0--------------------------|--------------------------------------|
-----0--------------2-----------------|-----------2-----L--2--------0--2--3--|
--2-----2-----0--2-----2-----0-----2--|-----------------2-----2--------------|
--2-----------------------2-----2-----|--4--5--4-----4-----------4--0--------|
--------------------------------------|--5-----------------------------------|
--------------------------------------|--------------------------------------|


  E  E  E  E  E  E  E  E  E  E  E  E     E  E  E  E  E  E  E  E  E  E  E  E   
--2--------L-----0--5-----------------|--------------------0-----------------|
--------0--3-----0-----------3--------|--2-----0--2-----0-----------0--------|
-----0-----------------0--------4-----|-----0-----------------0--------0-----|
--0-----------0-----0-----0--------5--|--2-----------2-----2-----2--------2--|
--------------------------------------|--------------------------------------|
--------------------------------------|--------------------------------------|


  E  E  E  E  E  E  E  E  E  E  E  E     E  E  E  E  E  E  E  E  E  E  E  E   
-----------0--------------------------|--------------------------------------|
-----0--------------2-----------------|-----------2-----L--2--------0--2--3--|
--2-----2-----0--2-----2-----0-----2--|-----------------2-----2--------------|
--2-----------------------2-----2-----|--4--5--4-----4-----------4--0--------|
--------------------------------------|--5-----------------------------------|
--------------------------------------|--------------------------------------|


  E  E  E  E  E  E  E  E  E  E  E  E     E  E  E  E  E  E  E  E  E  E  E  E   
--2--3--2--5--------------------------|-----------0--------------------------|
--------------------0--------3--------|--2--3--2-----------0--------0--------|
-----------------------------------0--|-----------------0-----0-----------0--|
--------------2--4-----4--2-----2-----|--------------2-----------2-----2-----|
--------------------------------------|--------------------------------------|
--3--------------------------3--------|--3--------------------------3--------|


  E  E  E  E  E  E  E  E  E  E  E  E     E  E  E  E  E  E  E  E  E  E  E  E   
-----------2--------------------------|-----0--------------------------------|
--2--3--2--------------------2--------|--2-----3-----------------------------|
--------------------2-----------------|-----------4-----L--4--------2--------|
-----------------2-----2-----------2--|-----------------4-----4-----------4--|
--------------4-----------4-----4-----|--------------2-----------2-----2-----|
--2--------------------------2--------|--2--------------------------2--------|


  E  E  E  E  E  E  E  E  E  E  E  E     E  E  E  E  E  E  E  E  E  E  E  E   
--------------------------------------|--------------------------------------|
-----------3-----L--------------------|-----------2-----L--------------------|
--0--2--0--------------------0--------|--------------------2--------------0--|
-----------------0--2--0-----------0--|--4--5--4--------2-----2-----4--------|
--------------2-----------2-----2-----|--------------4-----------4-----4-----|
--3--------------------------3--------|--2--------------------------2-----2--|


                                                                                ^                  
  E  E  E  E  E  E  E  E  E  E  E  E     E  E  E  E  E  E  E  E  E  E  E  E     W.                 
--------------------------------------|--------------------------------------|--2----------------||
-----------------------------0--------|--------------------------0--2--0-----|--2----------------||
--2-----L--0--------------------0-----|--2-----L--------------0-----------0--|--2----------------||
--------0-----0-----2--------0-----0--|--------------------2-----------------|--0----------------||
-----2-----------2-----2--------------|--------2--4--2-----------------------|-------------------||
--0-----------------0-----0-----------|--0--3-----------3--0-----------------|-------------------||




Duration Legend
---------------
W - whole
H - half
Q - quarter
E - 8th
S - 16th
T - 32nd
X - 64th
. - note dotted
|-n-|  - n-tuplets


Tablature Legend
----------------
L - tied note
^ - brush up
v - brush down
Login or Register to remove this ad.