Crystal Cave (Final Fantasy III) Guitar Tab

Submitted: Sep 08, 2014 by JordanVS

4.5
Average: 4.5 (2 votes)
Download | Listen
Game: Final Fantasy III
Composer(s): Nobuo Uematsu
Style: 2 or more instruments, Arrangement, Fingerstyle, Natural harmonics
Series: Final Fantasy

AutoScroll: Slow | Medium | Fast
Crystal Cave                                             
Final Fantasy III
Nobuo Uematsu
JordanVS

-4/4
-Tempo : 90


* Guitar 1 :

-Capo on the 3rd fret
-Drop D

     S S S S S S S S S S S S S S S S    S S S S S S S S S S S S S S S S      Q.     E  Q    E  E   
E||----------------------------------|------0-3-0-------0-3-0-------0-3-||------------------------|
B||------0-3-0-------0-3-0-------0-3-|--1-3-------3-1-3-------3-1-3-----||----------0-------------|
G||--0-2-------2-0-2-------2-0-2-----|----------------------------------||*------------2----0-----|
D||----------------------------------|----------------------------------||*--2-----------------4--|
A||----------------------------------|----------------------------------||---2---------2----------|
D||----------------------------------|----------------------------------||------------------------|


                |--3--|                   |--3--|                                                 
  H        Q    E  E  E     H        Q    E  E  E     H        Q    Q       Q.     E  Q    E  E   
-------------------------|-------------------------|---------------------|--0------7--5----3--2--|
-------------------------|--2----------------------|--1------------------|--0--------------------|
----------------------0--|--0-------------------0--|--0------------------|--0--------------------|
--2-------------2--4-----|----------------2--4-----|---------------------|-----------------------|
--3--------3----3--3--3--|--4--------4----4--4--4--|--3--------3---------|--2---------2----------|
-------------------------|-------------------------|---------------------|-----------------------|


                                                                            ^                    
                |--3--|                   |--3--|                                                
  H        Q    E  E  E     H        Q    E  E  E     H        Q    Q       Q.     E  Q    Q     
--0-------------0--2--3--|--9-------------0--------|--8------------------|----------------------|
--1----------------------|--8----------------7--8--|--8------------------|--3------1--0----1----|
--0----------------------|-------------------------|---------------------|--2-------------------|
-------------------------|-------------------------|---------------------|--3-------------------|
--3--------3----3--3--3--|--4--------4----4--4--4--|--3--------3---------|-----------------0----|
-------------------------|-------------------------|---------------------|--0-------------------|


  ^                    ^                    ^                     ^                    
  H.           Q       H.           Q       H.           Q        Q.     E  Q    Q     
--------------------|--------------------|--------------------|--10------8--7----8----|
--------------------|---------------1----|--0-----------------|--10-------------------|
--2------------0----|--2-----------------|--0-----------------|--10-------------------|
--3-----------------|--3-----------------|--0-----------------|-----------------------|
--2------------2----|--3------------3----|--------------------|------------------0----|
--0-----------------|--0-----------------|--0-----------------|---0-------------------|


  ^                    ^                        ^                    
  H.           Q       H.            Q          H.           Q       
--5------------3----|--5-------------8----|------------------------||
--6-----------------|--6------------------|--<>12------------------||
--4-----------------|--5------------------|--<>12-----------------*||
--------------------|---------------------|--<>12-----------------*||
---------------2----|---------------------|------------------------||
--0-----------------|--0------------10----|-----0------------------||


* Guitar 2 :

-Capo on the 3rd fret

     W                   W                     S S S S S S S S S S S S S S S S  
E||-------------------|-------------------||-----------------------------------|
B||-------------------|-------------------||---------0-----------0-----------0-|
G||-------------------|-------------------||*------0---0-------0---0-------0---|
D||-------------------|-------------------||*--2-4-------4-2-4-------4-2-4-----|
A||-------------------|-------------------||-----------------------------------|
E||-------------------|-------------------||-----------------------------------|


  S S S S S S S S S S S S S S S S    S S S S S S S S S S S S S S S S  
----------------------------------|----------------------------------|
--------1-----------1-----------1-|--------2-----------2-----------2-|
------0---0-------0---0-------0---|------0---0-------0---0-------0---|
--2-4-------4-2-4-------4-2-4-----|--2-4-------4-2-4-------4-2-4-----|
----------------------------------|----------------------------------|
----------------------------------|----------------------------------|


  S S S S S S S S S S S S S S S S    S S S S S S S S S S S S S S S S  
----------------------------------|----------------------------------|
--------1-----------1-----------1-|--------0-----------0-----------0-|
------0---0-------0---0-------0---|------0---0-------0---0-------0---|
--2-4-------4-2-4-------4-2-4-----|--2-4-------4-2-4-------4-2-4-----|
----------------------------------|----------------------------------|
----------------------------------|----------------------------------|


  S S S S S S S S S S S S S S S S    S S S S S S S S S S S S S S S S  
----------------------------------|----------------------------------|
--------1-----------1-----------1-|--------2-----------2-----------2-|
------0---0-------0---0-------0---|------0---0-------0---0-------0---|
--2-4-------4-2-4-------4-2-4-----|--2-4-------4-2-4-------4-2-4-----|
----------------------------------|----------------------------------|
----------------------------------|----------------------------------|


  S S S S S S S S S S S S S S S S    S S S S S S S S S S S S S S S S  
----------------------------------|----------------------------------|
--------1-----------1-----------1-|--------1-----------1-----------1-|
------0---0-------0---0-------0---|------2---2-------2---2-------2---|
--2-4-------4-2-4-------4-2-4-----|--2-3-------3-2-3-------3-2-3-----|
----------------------------------|----------------------------------|
----------------------------------|----------------------------------|


  S S S S S S S S S S S S S S S S    S S S S S S S S S S S S S S S S  
----------------------------------|--------0-----------0-----------0-|
------0-3-0-------0-3-0-------0-3-|------1---1-------1---1-------1---|
----------------------------------|----------------------------------|
--2-3-------3-2-3-------3-2-3-----|--2-3-------3-2-3-------3-2-3-----|
----------------------------------|----------------------------------|
----------------------------------|----------------------------------|


  S S S S S S S S S S S S S S S S    S S S S S S S S S S S S S S S S  
----------------------------------|----------------------------------|
------0-3-0-------0-3-0-------0-3-|--------1-----------1-----------1-|
----------------------------------|------2---2-------2---2-------2---|
--2-3-------3-2-3-------3-2-3-----|--2-3-------3-2-3-------3-2-3-----|
----------------------------------|----------------------------------|
----------------------------------|----------------------------------|


  S S S S S S S S S S S S S S S S    S S S S S S S S S S S S S S S S  
----------------------------------|--------0-----------0-----------0-|
--------3-----------3-----------3-|------1---1-------1---1-------1---|
------4---4-------4---4-------4---|----------------------------------|
--2-3-------3-2-3-------3-2-3-----|--2-3-------3-2-3-------3-2-3-----|
----------------------------------|----------------------------------|
----------------------------------|----------------------------------|


  S S S S S S S S S S S S S S S S    
-----------------------------------||
--------3-----------3-----------3--||
------4---4-------4---4-------4---*||
--2-3-------3-2-3-------3-2-3-----*||
-----------------------------------||
-----------------------------------||


Duration Legend
---------------
W - whole
H - half
Q - quarter
E - 8th
S - 16th
T - 32nd
X - 64th
. - note dotted
|-n-|  - n-tuplets


Tablature Legend
----------------
L - tied note
NH - natural harmonic
h - hammer on
p - pull off
^ - brush up
v - brush down
Login or Register to remove this ad.

1 comment on Crystal Cave

Good tab!

4

9
8
-
-
4
-

Holy jesus