Ads

Chocobo Theme (Final Fantasy III) Guitar Tab

Submitted: Nov 06, 2010 by Yoshi1212 (Last updated: Nov 07, 2010)

4
Average: 4 (2 votes)
Download | Listen
Game: Final Fantasy III
Composer(s): Nobuo Uematsu
Style: 2 or more instruments, Transcription
Series: Final Fantasy

AutoScroll: Slow | Medium | Fast
Intro 2nd Guitar
e |-----------------------------------|
B |-----------------------------------|
G |-----------------------------------|
D |-----------------------------------|2x
A |-----2-----0--------2-------0---0--|
E |-3-------1------3-------1-----1----|

1st Guitar
e |-----------------------------------|----------------------------0-1--------|
B |-3---0-----3-0----0-----0----------|----------------------0-1-3------------|
G |-------0--------0---0--------------|-0-0h1-0---0--------0------------------|
D |---------2-------------------------|---------3--------3--------------------|
A |-----------------------------------|---------------------------------------|
E |-----------------------------------|---------------------------------------|

e |-----------------------------------|----------------------------0-1--------|
B |-3---0-----3-0----0-----0----------|----------------------0-1-3------------|
G |-------0--------0---0--------------|-0-0h1-0---0--------0------------------|
D |---------2-------------------------|---------3--------3--------------------|
A |-----------------------------------|---------------------------------------|
E |-----------------------------------|---------------------------------------|

e |---------------------3-----------|----------------------------------|
B |-5-------------5-3-------3-----0-|-----------------0-0h1-0---0------|
G |-----5-2-----5-------------------|-5---2---------5---------2---0----|
D |---------4-7---------------------|-------4---4-7--------------------|
A |---------------------------------|---------5------------------------|
E |---------------------------------|----------------------------------|

e |---------------------3-----------|-------------------------------0-2h3|
B |-5-------------5-3-------3-----0-|-------------------------0-1-3------|
G |-----5-2-----5-------------------|-2-2h4-2-0-2---0-2-0h1h2------------|
D |---------4-7---------------------|------------------------------------|
A |---------------------------------|------------------------------------|
E |---------------------------------|------------------------------------|

2nd Guitar

e |-----------------------------------|
B |-----------------------------------|
G |-----------------------------------|
D |-----------------------------------|4x
A |-----2-----0--------2-------0---0--|
E |-3-------1------3-------1-----1----|

e |---------------------------------|----------------------------------|
B |---------------------------------|----------------------------------|
G |-5-------------------------------|----------------------------------|
D |---------------------------4-2---|----------------------------------|
A |-3-----3-5-------2-------2-------|-3-----4---------2-----0----------|
E |---------------------------------|---------------------------3---1--|

e |---------------------------------|------------------------------------|
B |---------------------------------|------------------------------------|
G |-5-------------------------------|------------------------------------|
D |---------------------------4-2---|-----------------0-------0----------|
A |-3-----3-5-------2-------2-------|------------------------------------|
E |---------------------------------|-1-------1--------------------------|



Reapeat to Top
Login or Register to remove this ad.

3 comments on Chocobo Theme

PLZ READ

My first tab Rate coment and recomend if you wish

Good draft! One issue with

Good draft!

One issue with the correctness: In guitar 1, measure 2,

-0-0h1-0- should be -0-0h2-0-. Same for the line right below that (measure 4).

Yea

yea that does sound better thx