Ads

The Boundless Ocean (Final Fantasy III) Guitar Tab

Submitted: Nov 17, 2014 by JordanVS

5
Average: 5 (3 votes)
Download | Listen
Game: Final Fantasy III
Composer(s): Nobuo Uematsu
Style: Arrangement, Fingerstyle
Series: Final Fantasy

AutoScroll: Slow | Medium | Fast
The Boundless Ocean                                         
Final Fantasy III
Nobuo Uematsu 
JordanVS

-Capo on the 2nd fret
-4/4
-Tempo : 110



     H.           Q         E  E  E  E  E  E  E  E     E  E  E  E  E  E  E  E   
E||--------------------||---5-----------------------|--L-----------3--1--0--5--|
B||--------------------||---------6-----------6-----|--------1-----------------|
G||--------------------||*-----7-----7-----7-----7--|-----0-----0--------0-----|
D||---------------7----||*--0-----------0-----------|--------------------------|
A||--------------------||---------------------------|--3-----------3-----------|
E||--------------------||---------------------------|--------------------------|


  E  E  E  E  E  E  E  E     E  E  E  E  E  E  E  E     E  E  E  E  E  E  E  E   
--------------------------|--------------0--1--0-----|--------------5-----3-----|
--3-----------------------|--L--------------------1--|--------------------------|
--------3-----------3-----|--------0-----------0-----|--2-----------------------|
-----3-----3-----3-----3--|-----2-----2--------------|-----0--3--0-----0--3--0--|
--1-----------1-----------|--3-----------3-----------|--1-----------1-----------|
--------------------------|--------------------------|--------------------------|


  E  E  E  E  E  E  E  E     E  E  E  E  E  E  E  E     E  E  E  E  E  E  E  E   
--8-----------5-----3-----|--5-----------------------|--------------------------|
--------5-----------5-----|--------3-----------3-----|--------2-----------------|
-----5-----5-----5-----5--|-----3-----3-----3-----3--|-----2-----2--------2-----|
--------------------------|--------------------------|-----------------2-----2--|
--0-----------0-----------|--------------------------|--0-----------0-----------|
--------------------------|--3-----------3-----------|--------------------------|


  E  E  E  E  E  E  E  E     E  E  E  E  E  E  E  E     E  E  E  E  E  E  E  E   
--5-----------------------|--L-----------3--1--0--5--|--------------------------|
--------6-----------6-----|--------1-----------------|--3-----------------------|
-----7-----7-----7-----7--|-----0-----0--------0-----|--------3-----------3-----|
--0-----------0-----------|--------------------------|-----3-----3-----3-----3--|
--------------------------|--3-----------3-----------|--1-----------1-----------|
--------------------------|--------------------------|--------------------------|


  E  E  E  E  E  E  E  E     E  E  E  E  E  E  E  E     E  E  E  E   Q    Q     
--------------0--1--0-----|--------------5-----3-----|--8----------------------|
--L--------------------1--|--------------------------|--------------10----8----|
--------0-----------0-----|--2-----------------------|-----0-----0-------------|
-----2-----2--------------|-----0--3--0-----0--3--0--|--------8-----------8----|
--3-----------3-----------|--1-----------1-----------|--6------------6---------|
--------------------------|--------------------------|-------------------------|


  E  E  E  E  Q    Q       E  E  E  E  E  E  E  E     E  E  E  E  Q    Q     
--------------3----1----|--0-----------------------|--1---------------------|
--6---------------------|--------2-----------------|--------------4----3----|
-------------------1----|-----2-----2--------2-----|------------------------|
--------6---------------|-----------------2-----2--|--------1----------1----|
-----6-----6------------|--0-----------0-----------|-----3-----3------------|
--4-----------4---------|--------------------------|--4-----------4---------|


  E  E  E  E  E  E  E  E     E  E  E  E  E  E  E  E     E  E  E  E  E  E  E  E   
--------------------------|--------------------------|--------------------------|
--2-----------------------|--4-----------3-----1-----|--0-----------------------|
--------------2-----------|--------0-----------0-----|--------0-----------0-----|
--------2-----------2-----|-----1-----1-----1-----1--|-----0-----0-----0-----0--|
-----4-----4-----4-----4--|--3-----------3-----------|--------------------------|
--5-----------5-----------|--------------------------|--3-----------3-----------|


  E  E  E  E  E  E  E  E     E  E  E  E  E  E  E  E     E  E  E  E  E  E  E  E   
--------------------------|--------------------------|--------------------------|
--3-----------2-----0-----|--------------------0-----|--2-----------------------|
--------------------------|--3-----------3-----------|--------------------------|
-----0--4--0-----0--4--0--|--------4-----------4-----|--------2-----------2-----|
--2-----------2-----------|-----4-----4-----4-----4--|-----4-----4-----4-----4--|
--------------------------|--2-----------2-----------|--5-----------5-----------|


                               ^                  
  E  E  E  E  E  E  E  E       W                  
---------------------------||--5----------------||
---------------------------||--6----------------||
--2-----------------2-----*||--7----------------||
--------2-----------2-----*||--0----------------||
-----4-----4-----4-----4---||-------------------||
--5-----------5------------||-------------------||




Duration Legend
---------------
W - whole
H - half
Q - quarter
E - 8th
S - 16th
T - 32nd
X - 64th
. - note dotted
|-n-|  - n-tuplets


Tablature Legend
----------------
L - tied note
^ - brush up
v - brush down
Login or Register to remove this ad.