The Boundless Ocean (Final Fantasy III) Bass/Guitar Tab

Submitted: Dec 08, 2010 by hashel (Last updated: Dec 09, 2010)

0
Download | Listen
Game: Final Fantasy III
Composer(s): Nobuo Uematsu
Style: 2 or more instruments, Transcription
Series: Final Fantasy

AutoScroll: Slow | Medium | Fast
Melody
     H.           Q         W                   H        E  E  E  E     W                 
E||--------------------||---7----------------|--L--------5--3--2--7--|--0----------------|
B||---------------0----||--------------------|-----------------------|-------------------|
G||--------------------||*-------------------|-----------------------|-------------------|
D||--------------------||*-------------------|-----------------------|-------------------|
A||--------------------||--------------------|-----------------------|-------------------|
E||--------------------||--------------------|-----------------------|-------------------|


  H        E  E  E  E     H        Q    Q        H        Q    Q       W                 
--L--------2--3--2-----|-----------7----5----|--10--------7----5----|--7----------------|
--------------------3--|--0------------------|----------------------|-------------------|
-----------------------|---------------------|----------------------|-------------------|
-----------------------|---------------------|----------------------|-------------------|
-----------------------|---------------------|----------------------|-------------------|
-----------------------|---------------------|----------------------|-------------------|


  H.           Q       W                   H        E  E  E  E     W                 
--------------------|--7----------------|--L--------5--3--2--7--|--0----------------|
---------------0----|-------------------|-----------------------|-------------------|
--------------------|-------------------|-----------------------|-------------------|
--------------------|-------------------|-----------------------|-------------------|
--------------------|-------------------|-----------------------|-------------------|
--------------------|-------------------|-----------------------|-------------------|


  H        E  E  E  E     H        Q    Q        H        Q    Q     
--L--------2--3--2-----|-----------7----5----|--10--------7----5----|
--------------------3--|--0------------------|----------------------|
-----------------------|---------------------|----------------------|
-----------------------|---------------------|----------------------|
-----------------------|---------------------|----------------------|
-----------------------|---------------------|----------------------|


  H        Q    Q       H.           Q       H        Q    Q       H        H         
--3--------5----3----|--2-----------------|--3--------1----0----|--------------------|
---------------------|---------------0----|---------------------|--4--------0--------|
---------------------|--------------------|---------------------|--------------------|
---------------------|--------------------|---------------------|--------------------|
---------------------|--------------------|---------------------|--------------------|
---------------------|--------------------|---------------------|--------------------|


  H        Q    Q       H.           Q       H        Q    Q       Q    Q    Q    Q     
--1--------0---------|--------------------|--0------------------|----------------------|
----------------3----|--2-----------------|-----------4----2----|--1---------1----2----|
---------------------|---------------2----|---------------------|-------1--------------|
---------------------|--------------------|---------------------|----------------------|
---------------------|--------------------|---------------------|----------------------|
---------------------|--------------------|---------------------|----------------------|


  W                   H.           Q       
-------------------|---------------------||
--4----------------|--0------------0-----||
-------------------|--------------------*||
-------------------|--------------------*||
-------------------|---------------------||
-------------------|---------------------||




Chords
                              ^                   ^                   ^                 
     Q    Q    Q    Q         W                   W                   W                 
E||----------------------||--------------------|--2----------------|--0----------------|
B||------------x---------||---0----------------|--3----------------|--1----------------|
G||-------x--------------||*--0----------------|--2----------------|--0----------------|
D||--x-------------------||*--2----------------|--0----------------|--2----------------|
A||----------------------||---2----------------|-------------------|--3----------------|
E||----------------------||---0----------------|-------------------|-------------------|


  ^                   ^                   ^                   ^                 
  W                   W                   W                   W                 
--2----------------|--0----------------|-------------------|-------------------|
--3----------------|--1----------------|--3----------------|--1----------------|
--2----------------|--0----------------|--4----------------|--2----------------|
--0----------------|--2----------------|--4----------------|--2----------------|
-------------------|--3----------------|--2----------------|--0----------------|
-------------------|-------------------|-------------------|-------------------|


  ^                   ^                   ^                   ^                 
  W                   W                   W                   W                 
-------------------|-------------------|--2----------------|--0----------------|
--4----------------|--0----------------|--3----------------|--1----------------|
--4----------------|--0----------------|--2----------------|--0----------------|
--4----------------|--2----------------|--0----------------|--2----------------|
--2----------------|--2----------------|-------------------|--3----------------|
-------------------|--0----------------|-------------------|-------------------|


  ^                   ^                   ^                   ^                 
  W                   W                   W                   W                 
--2----------------|--0----------------|-------------------|-------------------|
--3----------------|--1----------------|--3----------------|--3----------------|
--2----------------|--0----------------|--4----------------|--3----------------|
--0----------------|--2----------------|--4----------------|--3----------------|
-------------------|--3----------------|--2----------------|--1----------------|
-------------------|-------------------|-------------------|-------------------|


  ^                   ^                   ^                   ^                 
  W                   W                   W                   W                 
-------------------|-------------------|-------------------|--2----------------|
--4----------------|--3----------------|--4----------------|--3----------------|
--4----------------|--3----------------|--4----------------|--2----------------|
--4----------------|--3----------------|--4----------------|--0----------------|
--2----------------|--1----------------|--2----------------|-------------------|
-------------------|-------------------|-------------------|-------------------|


  ^                   ^                   ^                   ^                 
  W                   W                   W                   W                 
-------------------|-------------------|-------------------|-------------------|
--2----------------|--5----------------|-------------------|--4----------------|
--2----------------|--6----------------|--5----------------|--4----------------|
--2----------------|--6----------------|--6----------------|--4----------------|
--0----------------|--4----------------|--6----------------|--2----------------|
-------------------|-------------------|--4----------------|-------------------|


  ^                   
  W                   
--------------------||
--4-----------------||
--2----------------*||
--4----------------*||
--2-----------------||
--------------------||



Bass /!\ 5 strings /!\
               E  E  E  E  E  E  E  E     E  E  E  E  E  E  E  E   
G||-------||---------------------------|--------------------------|
D||-------||*--------0-----------0-----|--------------------------|
A||-------||------2-----2-----2-----2--|-----1--3--1-----1--3--1--|
E||-------||*--3-----------3-----------|--1-----------1-----------|
B||-------||---------------------------|--------------------------|


  E  E  E  E  E  E  E  E     E  E  E  E  E  E  E  E     E  E  E  E  E  E  E  E   
--------------------------|--------------------------|--------------------------|
--------------------------|--------------------------|--------------------------|
--------2-----------2-----|-----1--3--1-----1--3--1--|--------2-----------2-----|
--0--3-----3--0--3-----3--|--1-----------1-----------|--0--3-----3--0--3-----3--|
--------------------------|--------------------------|--------------------------|


  E  E  E  E  E  E  E  E     E  E  E  E  E  E  E  E     E  E  E  E  E  E  E  E   
--------------------------|--------------------------|--------------------------|
--------------------------|--------------------------|--------------------------|
--------1-----------1-----|--------------------------|--------0-----------0-----|
-----1-----1-----1-----1--|-----0--3--0-----0--3--0--|-----2-----2-----2-----2--|
--3-----------3-----------|--1-----------1-----------|--3-----------3-----------|


  E  E  E  E  E  E  E  E     E  E  E  E  E  E  E  E     E  E  E  E  E  E  E  E   
--------------------------|--------------------------|--------------------------|
--------0-----------0-----|--------------------------|--------------------------|
-----2-----2-----2-----2--|-----1--3--1-----1--3--1--|--------2-----------2-----|
--3-----------3-----------|--1-----------1-----------|--0--3-----3--0--3-----3--|
--------------------------|--------------------------|--------------------------|


  E  E  E  E  E  E  E  E     E  E  E  E  E  E  E  E     E  E  E  E  E  E  E  E   
--------------------------|--------------------------|--------------------------|
--------------------------|--------------------------|--------2-----------2-----|
-----1--3--1-----1--3--1--|--------2-----------2-----|--0--3-----3--0--3-----3--|
--1-----------1-----------|--0--3-----3--0--3-----3--|--------------------------|
--------------------------|--------------------------|--------------------------|


  E  E  E  E  E  E  E  E     E  E  E  E  E  E  E  E     E  E  E  E  E  E  E  E   
--------------------------|--------------------------|--------------------------|
--------------------------|--------------------------|--------------------------|
-----0--2--0-----0--2--0--|--------1-----------1-----|--------0-----------0-----|
--------------------------|-----2-----2-----2-----2--|-----1-----1-----1-----1--|
--2-----------2-----------|--3-----------3-----------|--2-----------2-----------|


  E  E  E  E  E  E  E  E     E  E  E  E  E  E  E  E     E  E  E  E  E  E  E  E   
--------------------------|--------------------------|--------------------------|
--------------------------|--------------------------|--------------------------|
--------1-----------1-----|-----0--3--0-----0--3--0--|--------3-----------3-----|
-----2-----2-----2-----2--|--1-----------1-----------|-----3-----3-----3-----3--|
--3-----------3-----------|--------------------------|--1-----------1-----------|


  E  E  E  E  E  E  E  E     E  E  E  E  E  E  E  E     E  E  E  E  E  E  E  E   
--------------------------|--------------------------|--------------------------|
--------------------------|--------------------------|--------------------------|
-----0--4--0-----0--4--0--|--------3-----------3-----|--------1-----------1-----|
--1-----------1-----------|-----2-----2-----2-----2--|-----2-----2-----2-----4--|
--------------------------|--1-----------1-----------|--3-----------3-----------|


  E  E  E  E  E  E  E  E     
---------------------------||
--------------------------*||
-----1--3--1-----1--3--1---||
--------------------------*||
--3-----------3------------||
Login or Register to remove this ad.