Ads

Battle Theme (Final Fantasy III) Bass/Guitar Tab

Submitted: Dec 03, 2010 by hashel (Last updated: Aug 25, 2011)

5
Average: 5 (1 vote)
Download | Listen
Game: Final Fantasy III
Composer(s): Nobuo Uematsu
Style: 2 or more instruments, Transcription
Series: Final Fantasy

Click here for a video example.

AutoScroll: Slow | Medium | Fast
Lead Guitar
                        H.           Q        H.            Q     
E||-------|-------||----------------------|----------------------|
B||-------|-------||----------------------|----------------------|
G||-------|-------||*---------------------|----------------------|
D||-------|-------||*----------------9----|--10------------12----|
A||-------|-------||---12-----------------|----------------------|
E||-------|-------||----------------------|----------------------|


  Q     Q     Q    Q        E   E  H        Q        Q     Q     Q     Q     
------------------------|------------------------|--------------------------|
-------10---------------|------------------------|--------------------------|
--9----------12----9----|--11--------------------|--10----------------10----|
------------------------|------12----------------|--------10----------------|
------------------------|------------------------|--------------12----------|
------------------------|------------------------|--------------------------|


  Q    Q     Q    Q        Q     Q     Q     Q       E   E   E   E   E  E  E   E   
-----------------------|--------------------------|-------------------------------|
-----------------------|--------------------------|-------------------------------|
--9---------------9----|--------------------------|-------------------------------|
-------9---------------|--12----10----------10----|--9----------------------------|
------------10---------|--------------12----------|-----12--11--------------------|
-----------------------|--------------------------|-------------13--12--8--7--12--|


   H.           Q        H.            Q       Q     Q     Q    Q     
---------------------|----------------------|------------------------|
---------------------|----------------------|-------10---------------|
---------------------|----------------------|--9----------12----9----|
----------------9----|--10------------12----|------------------------|
--12-----------------|----------------------|------------------------|
---------------------|----------------------|------------------------|


   E   E  H        Q        Q     Q     Q     Q       Q    Q     Q    Q     
------------------------|--------------------------|-----------------------|
------------------------|--------------------------|-----------------------|
--11--------------------|--10----------------10----|--9--------------------|
------12----------------|--------10----------------|-------9----------9----|
------------------------|--------------12----------|------------10---------|
------------------------|--------------------------|-----------------------|


   W                   H.           Q        H        H            H        H         
--------------------|--------------------|---------------------|---------------------|
--------------------|--------------------|---------------------|---------------------|
--------------------|--------------------|------------9--------|--10-----------------|
--------------------|--------------------|--12-----------------|------------9--------|
--12----------------|--L-----------------|---------------------|---------------------|
--------------------|--------------------|---------------------|---------------------|


   E   E  E   E  E   E  E   E     E   E  E   E   H            H        H         
-------------------------------|--------------------------|---------------------|
-------------------------------|--------------------------|---------------------|
----------9--------------------|--9-----------------------|------------9--------|
--10--12---------9--10-----10--|---------9--10--10--------|--12-----------------|
-------------12----------------|-----12-------------------|---------------------|
-------------------------------|--------------------------|---------------------|


   H         H            E  E   Q    E   E   Q        E   E  Q     E  E   E   E   
----------------------|----------------------------|------------------------------|
----------------------|----------------------------|--------------------------10--|
--10------------------|----------------------------|----------9--------9--10------|
------------12--------|------9--10----9--10--12----|--10--12-------12-------------|
----------------------|--12------------------------|------------------------------|
----------------------|----------------------------|------------------------------|


  W                   W                   
-------------------|--------------------||
--9----------------|--------------------||
-------------------|--9----------------*||
-------------------|-------------------*||
-------------------|--------------------||
-------------------|--------------------||





Bass
  Q    Q    Q    Q       Q    Q    Q    Q       E  E  Q    H         
----------------------|----------------------|----------------------|
----------------------|----------------------|--0--0----------------|
----------------------|-------0----2----3----|----------------------|
--4----4----4----4----|--3-------------------|----------------------|


  E  E  E  E  H           E  E  E  E  H           Q    Q    Q    Q     
-----------------------|-----------------------|----------------------|
--3--3--------3--------|--2--2--------2--------|------------0----3----|
-----------3-----------|-----------2-----------|--2----3--------------|
-----------------------|-----------------------|----------------------|


  E  E  E  E  E  E  E  E     Q    Q    Q    Q       Q    Q    Q    Q     
-----8--9--3--4--0--1-----|----------------------|----------------------|
--2--------------------2--|----------------------|----------------------|
--------------------------|--0----0----0----0----|----------------------|
--------------------------|----------------------|--4----4----4----4----|


  Q    Q    Q    Q       E  E  Q    H           E  E  E  E  H         
----------------------|----------------------|-----------------------|
----------------------|--0--0----------------|--3--3--------3--------|
-------0----2----3----|----------------------|-----------3-----------|
--3-------------------|----------------------|-----------------------|


  E  E  E  E  H           Q    Q    Q    Q       Q    Q    Q    Q     
-----------------------|----------------------|----------------------|
--2--2--------2--------|----------------------|----------------------|
-----------2-----------|--0----0----0---------|--0----0----0---------|
-----------------------|-----------------3----|-----------------3----|


  H        E  E  E  E     H        E  E  E  E     E  E  Q    E  E  Q     
--------------7--5--4--|--------------7--5--4--|--2--2-------1--1-------|
-----------------------|--2--------------------|------------------------|
--2--------------------|-----------------------|------------------------|
-----------------------|-----------------------|------------------------|


  E  E  Q    E  E  Q       H        E  E  E  E     H        E  E  E  E   
------------------------|--------------7--5--4--|-----------------------|
--5--5-------4--4-------|-----------------------|--2-----------0--------|
------------------------|--2--------------------|-----------------3--2--|
------------------------|-----------------------|-----------------------|


  E  E  E  E  E  E  E  E     E  E  E  E  E  E  E  E     H        H         
--------------------------|--------------------------|--------------------|
--------------------------|--------------0--0-----0--|--2--------0--------|
--0--0-----0--2--2-----2--|--3--3-----3--------------|--------------------|
--------------------------|--------------------------|--------------------|


  H        H           
---------------------||
--------------------*||
--3--------2--------*||
---------------------||




Chords
                       H        H           H        H           W                 
E||-------|-------||---------------------|--------------------|--0----------------|
B||-------|-------||------------0--------|--1--------3--------|--1----------------|
G||-------|-------||*--2-----------------|--1--------1--------|--0----------------|
D||-------|-------||*--2--------0--------|--2--------2--------|-------------------|
A||-------|-------||---3--------9--------|--------------------|-------------------|
E||-------|-------||---------------------|--------------------|-------------------|


  E  E  S S S S S S S S S S E     W                   W                 
-------------------------------|--1----------------|--0----------------|
----------0-1-3-1-0------------|--1----------------|--0----------------|
--2--2--2-----------2-0--------|--2----------------|--0----------------|
------------------------4-2-0--|-------------------|-------------------|
-------------------------------|-------------------|-------------------|
-------------------------------|-------------------|-------------------|


  W                   W                   H        H           H        H         
-------------------|-------------------|--------------------|--------------------|
--3----------------|-------------------|-----------0--------|--1--------3--------|
--2----------------|-------------------|--2-----------------|--1--------1--------|
-------------------|-------------------|--2--------0--------|--2--------2--------|
-------------------|-------------------|--3--------9--------|--------------------|
-------------------|-------------------|--------------------|--------------------|


  W                   E  E  S S S S S S S S S S E     W                 
--0----------------|-------------------------------|--1----------------|
--1----------------|----------0-1-3-1-0------------|--1----------------|
--0----------------|--2--2--2-----------2-0--------|--2----------------|
-------------------|------------------------4-2-0--|-------------------|
-------------------|-------------------------------|-------------------|
-------------------|-------------------------------|-------------------|


  W                   W                   H.           Q       H        H         
--0----------------|-------------------|--------------------|-----------0--------|
--0----------------|-------------------|--------------------|--3-----------------|
--0----------------|--2----------------|--L-----------------|--2--------2--------|
-------------------|--2----------------|--L-----------------|--3--------3--------|
-------------------|--3----------------|--L-----------------|--------------------|
-------------------|-------------------|--------------------|--------------------|


  H         H           E  E  Q    E  E  Q       E  E  Q    E  E  Q     
--1------------------|------------------------|------------------------|
--0------------------|------------------------|------------------------|
--1---------7--------|------------------------|------------------------|
------------9--------|------------------------|------------------------|
-----------11--------|--3--3-------3--3-------|--3--3-------3--3-------|
---------------------|--5--5-------4--4-------|--3--3-------2--2-------|


  H        H           H         H           E  E  Q    E  E  Q     
-----------0--------|--1------------------|------------------------|
--3-----------------|--0------------------|------------------------|
--2--------2--------|--1---------7--------|------------------------|
--3--------3--------|------------9--------|-----0--2----0--2--3----|
--------------------|-----------11--------|--3---------------------|
--------------------|---------------------|------------------------|


  E  E  Q    E  E  E  E      W                   H        H           
-------------------------|---0----------------|--0--------0---------||
----------------------1--|---0----------------|--1--------3---------||
--------0-------0--2-----|--13----------------|--0--------1--------*||
--2--3-------3-----------|--------------------|--------------------*||
-------------------------|--------------------|---------------------||
-------------------------|--------------------|---------------------||




Rhythm Guitar
     E  E  E  E  E  E  E  E     E  E  E  E  E  E  E  E       E  E  E  E  E  E  E  E   
E||--------------------------|--------------------------||---------------------------|
B||--------------------------|--------------------------||---------------------------|
G||--------------------------|--------------------------||*--------------------------|
D||--2--2--2--2--2--2--------|--2--2--2--2--2--2--------||*--2--2--2--2--2--2--2--2--|
A||--0--0--0--0--0--0--5--5--|--0--0--0--0--0--0--5--5--||---0--0--0--0--0--0--0--0--|
E||--------------------3--3--|--------------------3--3--||---------------------------|


  E  E  E  E  E  E  E  E     E  E  E  E  E  E  E  E     E  E  S S S S S S S S S S E   
--------------------------|--------------------------|-------------------------------|
--------------------------|--------------------------|----------0-1-3-1-0------------|
--------------------------|--------------------------|--------2-----------2-0--------|
--------------------------|--------2--2--4--4--5--5--|--7--7------------------4-2-0--|
--6--6--6--6--6--6--6--6--|--5--5--0--0--2--2--3--3--|--5--5-------------------------|
--4--4--4--4--4--4--4--4--|--3--3--------------------|-------------------------------|


  E  E  E  E  E  E  E  E     E  E  E  E  E  E  E  E     E  E  E  E  E  E   E   E   
--------------------------|--------------------------|----------------------------|
--------------------------|--------------------------|----------------------------|
--5--5--------5--5--5--5--|--4--4--------4--4--4--4--|----------------------------|
--3--3--5--5--3--3--3--3--|--2--2--4--4--2--2--2--2--|--4--4--5--5--7--7--10--10--|
--------3--3--------------|--------2--2--------------|--2--2--3--3--5--5---8---8--|
--------------------------|--------------------------|----------------------------|


  E   E   E   E   E  E  E   E     E  E  E  E  E  E  E  E     E  E  E  E  E  E  E  E   
-------------------------------|--------------------------|--------------------------|
-------------------------------|--------------------------|--------------------------|
-------------------------------|--------------------------|--------------------------|
--9----------------------------|--2--2--2--2--2--2--2--2--|--------------------------|
-----12--11--------------------|--0--0--0--0--0--0--0--0--|--6--6--6--6--6--6--6--6--|
-------------13--12--8--7--12--|--------------------------|--4--4--4--4--4--4--4--4--|


  E  E  E  E  E  E  E  E     E  E  S S S S S S S S S S E     E  E  E  E  E  E  E  E   
--------------------------|-------------------------------|--------------------------|
--------------------------|----------0-1-3-1-0------------|--------------------------|
--------------------------|--------2-----------2-0--------|--5--5--------5--5--5--5--|
--------2--2--4--4--5--5--|--7--7------------------4-2-0--|--3--3--5--5--3--3--3--3--|
--5--5--0--0--2--2--3--3--|--5--5-------------------------|--------3--3--------------|
--3--3--------------------|-------------------------------|--------------------------|


  E  E  E  E  E  E  E  E     E  E  E  E  E  E  E  E     E  E  E  E  E  E  E  E   
--------------------------|--------------------------|--------------------------|
--------------------------|--------------------------|--------------------------|
--4--4--------4--4--4--4--|--------------------------|--------------------------|
--2--2--4--4--2--2--2--2--|--2--2--2--2--2--2--------|--2--2--2--2--2--2--------|
--------2--2--------------|--0--0--0--0--0--0--5--5--|--0--0--0--0--0--0--5--5--|
--------------------------|--------------------3--3--|--------------------3--3--|


  H        E  E  E  E     H        E  E  E  E     E  E  Q    E  E  Q     
-----------------------|-----------------------|------------------------|
-----------------------|-----------------------|------------------------|
--------------7--5--4--|--4-----------7--5--4--|------------------------|
--4--------------------|--2--------------------|--2--2------------------|
--2--------------------|-----------------------|--0--0-------6--6-------|
-----------------------|-----------------------|-------------4--4-------|


  E  E  Q    E  E  Q       H        E  E  E  E     H        E  E  E  E   
------------------------|-----------------------|-----------------------|
------------------------|-----------------------|-----------------------|
------------------------|--------------7--5--4--|--4--------------------|
------------------------|--4--------------------|--2--------------------|
--5--5-------4--4-------|--2--------------------|--------------5--3--2--|
--3--3-------2--2-------|-----------------------|-----------------------|


  E  E  E  E  E  E  E  E     E  E  E  E  E  E  E  E     H        H         
--------------------------|--------------------------|--------------------|
--------------------------|--------------------------|--------------------|
--------------------------|--------------------------|--------------------|
--2--2-----2--4--4-----4--|--5--5-----5--7--7-----7--|--9--------7--------|
--0--0-----0--2--2-----2--|--3--3-----3--5--5-----5--|--7--------5--------|
--------------------------|--------------------------|--------------------|


  H        H           
---------------------||
---------------------||
--------------------*||
--5--------4--------*||
--3--------2---------||
---------------------||
Login or Register to remove this ad.