Ads

Town (Final Fantasy II) Guitar Tab

Submitted: May 19, 2017 by FingerstyleGaming

5
Average: 5 (1 vote)
Download | Listen
Game: Final Fantasy II
Composer(s): Nobuo Uematsu
Style: Arrangement, Fingerstyle
Series: Final Fantasy

AutoScroll: Slow | Medium | Fast
Town Theme
From Final Fantasy II
Composed by Nobuo Uematsu
Arranged By FingerstyleGaming

     H.           E  E       Q.     E  Q    E  E     H        E  E  E  E   
E||---------------------||---------------------0--|--1--------5--3--------|
B||---------------------||-------------1----3-----|-----------------6--5--|
G||------------------0--||*--2------3-------------|-----------------------|
D||---------------------||*------------2----------|--0--------------------|
A||---------------------||------------------------|-----------4-----------|
E||---------------------||---1--------------------|-----------------------|


  Q    Q    E  E  E  E     Q.     S S E  E  E  E     Q.     E  Q    E  E   
--1---------------------|-------------------------|--------------------0--|
-------3----1-----------|-------------------------|------------1----3-----|
---------------0--2--3--|--2------3-2-0--------0--|--2------3-------------|
------------------------|----------------2--3-----|------------2----------|
--1---------3-----------|-------------3-----------|-----------------------|
------------------------|--1----------------------|--1--------------------|


  Q    Q    E  E  E  E     Q    Q    Q    E  E     H        H         
--1---------5--3--------|--1--------------0--1--|--1-----------------|
-------1----------6--5--|-------3---------------|--------------------|
------------------------|-----------------------|--------------------|
--0---------------------|-----------------------|--3-----------------|
------------4-----------|--1---------3----------|--------------------|
------------------------|-----------------------|-----------1--------|


  Q.     E  E  E  E  E     H        Q    E  E     Q    E  E  Q.     E   
--1------1--------------|----------------------|-----------------------|
------------4-----1--2--|-------------------1--|--2----4--2--1---------|
---------------3--------|--5--------1----3-----|--------------------3--|
------------1-----------|----------------------|-----------------------|
--4---------------------|----------------------|--1----------3---------|
------------------------|--4--------1----------|-----------------------|


  Q.     E  E  E  E  E     Q.     E  E  E  E  E     H        E  E  E  E   
------------------------|--1------1--------------|-----------------------|
--1---------L--1--2--4--|------------4-----1--2--|--------------1--2--4--|
------------------------|---------------3--------|--5--------1-----------|
------------------------|------------1-----------|-----------------------|
------------0-----------|--4---------------------|-----------------------|
--1------4--------------|------------------------|--4--------1-----------|


  Q    Q    Q    E  E     H        Q    E  E     
-------4----3----1-----|--1--------1-----------||
--6-----------------4--|-----------------------||
-----------------------|-------------------0--*||
------------1----------|--3--------3----3-----*||
--4--------------------|-----------------------||
-----------------------|-----------------------||
Login or Register to remove this ad.

1 comment on Town

Pretty good, but I really

Pretty good, but I really think this song could benefit from a capo fret-1