Ads

Castle Pandemonium (Final Fantasy II) Guitar Tab

Submitted: Mar 17, 2012 by The Ripper

4.666665
Average: 4.7 (3 votes)
Download | Listen
Game: Final Fantasy II
Composer(s): Nobuo Uematsu
Style: Arrangement, Fingerstyle
Series: Final Fantasy

AutoScroll: Slow | Medium | Fast
				Final fantasy 2
			       Castle Pandemonium
                              composed by Nobuo Uematsu
                           Tabbed by The Ripper  March 14 2012
                              

       E  E  E  E  E  E  E  E     E  E  E  E  E  E  E  E   
  E||---------------------------|--------------0-----1-----|
  B||---------------0-----1-----|--3-----------------------|
  G||*--2-----------------------|--------------------------|
  D||*-----2-----2-----2-----2--|-----0-----0-----0-----0--|
  A||---0-----3-----0-----3-----|--------2-----------2-----|
  E||---------------------------|--3-----------3-----------|


    E  E  E  E  E  E  E  E     E  E  E  E  E  E  E  E   
  --0-----------------------|--------------------------|
  -----------1--------------|--------------------------|
  --------------2-----------|--------------------------|
  -----2-----2-----2-----2--|-----0-----0-----0-----0--|
  --0-----3-----0-----3-----|--------2-----------2-----|
  --------------------------|--3-----------3-----------|


    E  E  E  E  E  E  E  E     E  E  E  E  E  E  E  E   
  --0-----------5-----------|--4-----5-----7-----4-----|
  --------------------------|--------------------------|
  --------------------------|--------------------------|
  -----2-----2-----2-----2--|-----2-----2-----2-----2--|
  --0-----3-----0-----3-----|--------2-----------2-----|
  --------------------------|--4-----------3-----------|


    E  E  E  E  E  E  E  E     E  E  E  E  E  E  E  E   
  --5-----------0-----------|-----------------------0--|
  --------------------------|-----------------3--3-----|
  --------------------------|--------------------------|
  -----2-----2-----2-----2--|-----0-----0-----0-----0--|
  --------2-----------2-----|--------0-----------0-----|
  --3-----------3-----------|--2-----------1-----------|


    E  E  E  E  E  E  E  E     E  E  E  E  E  E  E  E   
  --1--------L--------------|--------0-----------0-----|
  --------------1-----------|--------------3-----------|
  --------------------2-----|--1-----------------------|
  -----2-----2-----2-----2--|--------------------------|
  --------------------------|-----2-----2-----2-----2--|
  --1-----------1-----------|--0-----------0-----------|


                                             |--3--|   
    E  E  E  E  E  E  E  E     E  Q    Q    E  E  E  E   
  --------L-----------------|---------------------------|
  --1--------0--------------|---------------------------|
  --------------2--------L--|------------------------0--|
  -----2-----2-----2-----2--|--0------------------2-----|
  --0-----------0-----------|-----3----2----0-----------|
  --------------------------|------------------3--------|


    E  E  E  E  E  E  E  E     E  E  E  E  E  E  E  E   
  --------------------------|--------------------------|
  --1-----L-----------------|--------3-----1-----0-----|
  --------------2--------L--|--------------------------|
  --------------------3-----|--2-----------------------|
  -----3-----3-----3-----3--|-----2-----2-----2-----2--|
  --1-----------1-----------|--0-----------0-----------|


    E  E  E  E  E  E  E  E     E  E  E  E  E  E  E  E       W                  
  --------------------------|--------------0------------||-------------------||
  --1-----------------3--1--|--0------------------------||-------------------||
  --------------------------|-----------------------1--*||--2----------------||
  --0-----0-----0-----0-----|--4--1--4-----2-----2-----*||--2----------------||
  -----0-----0-----0-----0--|-----------2-----2---------||--0----------------||
  --------------------------|---------------------------||-------------------||


                     
	Legend
	---------------
	W - whole
	H - half
	Q - quarter
	E - 8th
	|-n-|  - n-tuplets
	L - tied note
Login or Register to remove this ad.