Ancient Castle (Final Fantasy II) Bass/Guitar Tab

Submitted: Nov 21, 2010 by hashel (Last updated: Aug 25, 2011)

0
Download | Listen
Game: Final Fantasy II
Composer(s): Nobuo Uematsu
Style: 2 or more instruments, Arrangement
Series: Final Fantasy

Click here for a video example.

AutoScroll: Slow | Medium | Fast
Lead Guitar

       E   E   E   E   Q     E   E      Q     E   E   Q     Q        W                  
E||---------------12----------------|----------------------------|---------------------|
B||-------12--13------15--------12--|--13----12------------12----|---------------------|
G||*--14--------------------14------|------------14--12----------|--14~----------------|
D||*--------------------------------|----------------------------|---------------------|
A||---------------------------------|----------------------------|---------------------|
E||---------------------------------|----------------------------|---------------------|


  H         Q     Q        W                    E   E   E   E   E   E   E   E   
-----------12----15----|--14~----------------|-------------12--13--12------13--|
-----------------------|---------------------|-----15--15--------------15------|
-----------------------|---------------------|---------------------------------|
-----------------------|---------------------|---------------------------------|
-----------------------|---------------------|---------------------------------|
-----------------------|---------------------|---------------------------------|


   Q     E   E   H           H         Q     Q        W                  
--12----------------------|-----------------12----|---------------------|
--------13----------------|-----------13----------|--15~----------------|
------------14~--L--------|-----------------------|---------------------|
--------------------------|-----------------------|---------------------|
--------------------------|-----------------------|---------------------|
--------------------------|-----------------------|---------------------|


  E   E   E   E   E   E   E   E      Q.      E   E   E   E   E      Q.      S S H         
---------------------------------|------------------------------|-------------------------
-------------12--13--12------12--|--12--------------15--13------|----------------12-------
-----14--14--------------14------|----------12--12----------14--|--14------12-14----------
---------------------------------|------------------------------|-------------------------
---------------------------------|------------------------------|-------------------------
---------------------------------|------------------------------|-------------------------



Bass
                      E  E  Q    E  E  Q       E  E  E  E  H           E  E  E  E   H
G||--------|-------|------------------------|-----------------------|---------------------
D||*-------|-------|------------------------|-----------------------|--------7--7---------
A||*-------|-------|--7--7-------7--7-------|--7--7-----------------|--5--5---------------
E||--------|-------|------------------------|--------5--5-----------|---------------------


   E   E   E   E  H           E  E  E  E  H           E  E  E  E  H         
---------------------------|-----------------------|-----------------------|
---------------------------|--------7--7-----------|--------7--7-----------|
----------12--12-----------|-----------------------|-----------------------|
--10--10-------------------|--5--5-----------------|--5--5-----------------|


   E   E   E   E  H            E   E   E   E  H           E  E  E  E  H         
---------------------------|---------------------------|-----------------------|
---------------------------|---------------------------|--------9--9-----------|
----------12--12-----------|----------15--15-----------|-----------------------|
--10--10-------------------|--13--13-------------------|--7--7-----------------|


   E   E   E   E  E  E   E   E        
---------------------------------|
--------------------------------*|
----------14--14--------11--11--*|
--12--12----------7--7-----------|



Guitar 2
      ^        ^                                                               
      H        H           E  E  E  E  E  E  E  E     E  E  E  E  E  E  E  E   
E||---------------------|--------------------------|--------------0-----------|
B||---1--------3--------|--1--------1--------------|-----------1-----1--------|
G||*--0--------2--------|--------2-----4--------4--|--------2-----------2-----|
D||*--2--------4--------|-----3--------------5-----|-----2-----------------2--|
A||---0--------2--------|-----------------5--------|--0-----------------------|
E||---------------------|--------------------------|--------------------------|


  E  E  E  E  E  E  E  E     E  E  E  E  E  E  E  E     E  E  E  E  E  E  E  E   
--------------0-----------|--------------5-----------|--------------1-----------|
-----------1-----1--------|-----------7-----7--------|-----------3-----3--------|
--------2-----------2-----|--------7-----------7-----|--------3-----------3-----|
-----2-----------------2--|-----7-----------------7--|-----3-----------------3--|
--0-----------------------|--5-----------------------|--1-----------------------|
--------------------------|--------------------------|--------------------------|


  E  E  E  E  E  E  E  E     E  E  E  E  E  E  E  E     E  E  E  E  E  E  E  E   
--------------0-----------|--------------0-----------|--------------5-----------|
-----------1-----1--------|-----------1-----1--------|-----------6-----6--------|
--------0-----------0-----|--------0-----------0-----|--------7-----------7-----|
-----2-----------------2--|-----2-----------------2--|-----7-----------------7--|
--0-----------------------|--0-----------------------|--5-----------------------|
--------------------------|--------------------------|--------------------------|


  E  E  E  E  E  E  E  E     E  E  E  E  E  E  E  E     E  E  E  E  E  E  E  E     
--------------------------|--------------2-----------|---------------------------|
--------------1-----------|-----------0-----0--------|--------------0------------|
-----------2-----2--------|--------2-----------2-----|-----------1-----1--------*|
--------3-----------3-----|-----1-----------------1--|--------0-----------0-----*|
-----3-----------------3--|--2-----------------------|-----2-----------------2---|
--1-----------------------|--------------------------|--0------------------------|
Login or Register to remove this ad.

1 comment on Ancient Castle

Correction

The ending of the melody part should be

e -------------------------------------------------
b ------12-13-12----13-12----15-13---------------12
g 14-14----------14-------14--------14-14--12-14---
d -------------------------------------------------
a -------------------------------------------------
e -------------------------------------------------

Thanks for the tab, very awesome song.