Ads

Music Box of Water (Final Fantasy: Crystal Chronicles) Guitar Tab

Submitted: Apr 10, 2011 by 60NCA10

5
Average: 5 (2 votes)
Download | Listen
Game: Final Fantasy: Crystal Chronicles
Composer(s): Kumi Tanioka
Style: Arrangement, Fingerstyle
Series: Final Fantasy

This song is also called Orgel of Water

Click here for a video example.

AutoScroll: Slow | Medium | Fast



                 FINAL FANTASY CRYSTAL CHRONICLES
                       "Music Box of Water"
                     (a.k.a. "Orgel of Water")


                  Original song by: Kumi Tanioka

                  Fingerstyle Arrangement by:
                        Gonçalo Martins
                       October 17th 2010






     ^          ^             ^        ^           ^          ^           
     E  E  Q    E  E  Q       H        H           E  E  Q    E  E  Q     
E||--5--0-------------0----|--------------------|--5--0-------------0----|
B||--------7----2--3-------|--------------------|--------7----2--3-------|
G||--6----------2----------|--4--------2--------|--6----------2----------|
D||------------------------|--4--------2--------|------------------------|
A||------------------------|--------------------|------------------------|
E||------------------------|--------------------|------------------------|


  ^         ^           ^          ^             ^          ^          
  Q.     E  H           E  E  Q    E  E  Q       E  E  Q    Q    Q     
---------0-----------|--5--0----------4--5----|--7--5--4----2----4----|
------------0--------|--------7----7----------|-------------1---------|
--4---------1--------|--6---------------------|-----------------------|
--4------------------|-------------7----------|--4--------------------|
---------------------|------------------------|-----------------------|
---------------------|------------------------|-----------------------|


  ^           ^            ^        ^          
  E  E  E  E  Q    Q       H        H          
--0-----------2----5----|-----------0--------||
-----4-----5--2---------|--0-----------------||
--6-----6---------------|--2--------1--------||
------------------------|--------------------||
------------------------|--------------------||
------------------------|--------------------||




Duration Legend
---------------
H - half
Q - quarter
E - 8th
. - note dotted


Tablature Legend
----------------
^ - brush up


Login or Register to remove this ad.

1 comment on Music Box of Water

sounds just right

5

Good job tabbing this, it's really accurate sounds just like the game.