Login or Register to remove this ad.

Leaving the Body Freely (Final Fantasy: Crystal Chronicles) Guitar Tab

Submitted: May 15, 2010 by hslesperance

5
Average: 5 (1 vote)
Download | Listen
Game: Final Fantasy: Crystal Chronicles
Composer(s): Kumi Tanioka
Style: Transcription
Series: Final Fantasy

AutoScroll: Slow | Medium | Fast
Leaving the Body Freely
Final Fantasy Crystal Chronicles
Composed by Kumi Tanioka
Tabbed by hslesperance
5/15/10

Standard Tuning


e---------------------------------------------------------
B---3----3----3----3--3----3----3-3-3---------------------
G---2----2----2----2--2----2----2-2-2---------------------
D---0----0----0----0--0----0----0-0-0---------------------
A---------------------------------------------------------
E---------------------------------------------------------

e---------------------------------------------------------
B---3----3----3----3--3----3----3-3-3---------------------
G---2----2----2----2--2----2----2-2-2---------------------
D---0----0----0----0--0----0----0-0-0---------------------
A---------------------------------------------------------
E---------------------------------------------------------

e--------5-------5--7--5h7p5---5------------------8-7-5---
B-------------8--------------8------8-6-5-6-5-6-8---------
G---7-----------------------------------------------------
D---------------------------------------------------------
A---------------------------------------------------------
E---------------------------------------------------------

e--------------------5------------------------------------
B---8-6-8-5-----------------------------------------------
G-----------7-5-7-------7h9p7-5-7-------------------------
D---------------------------------------------------------
A---------------------------------------------------------
E---------------------------------------------------------

e---------------------------------------------------------
B---3----3----3----3--3----3----3-3-3---------------------
G---2----2----2----2--2----2----2-2-2---------------------
D---0----0----0----0--0----0----0-0-0---------------------
A---------------------------------------------------------
E---------------------------------------------------------

e---------------------------------------------------------
B---3----3----3----3--3----3----3-3-3---------------------
G---2----2----2----2--2----2----2-2-2---------------------
D---0----0----0----0--0----0----0-0-0---------------------
A---------------------------------------------------------
E---------------------------------------------------------

e--------5-------5--7--5h7p5---5------------------8-7-5---
B-------------8--------------8------8-6-5-6-5-6-8---------
G---7-----------------------------------------------------
D---------------------------------------------------------
A---------------------------------------------------------
E---------------------------------------------------------

e---7-8-10-7h8p7------------8--7----7---------------------
B----------------10-8-10---------10---10------------------
G---------------------------------------------------------
D---------------------------------------------------------
A---------------------------------------------------------
E---------------------------------------------------------

e---------------------------------------------------------
B---3----3----3--------2----2----2------------------------
G---2----2----2--------2----2----2------------------------
D---0----0----0--------2----2----2------------------------
A---------------------------------------------------------
E---------------------------------------------------------

e---------------------------------------------------------
B---3----3----3--------2----2----2------------------------
G---2----2----2--------2----2----2------------------------
D---0----0----0--------2----2----2------------------------
A---------------------------------------------------------
E---------------------------------------------------------

e--------5-------5--7--5h7p5---5------------------8-7-5---
B-------------8--------------8------8-6-5-6-5-6-8---------
G---7-----------------------------------------------------
D---------------------------------------------------------
A---------------------------------------------------------
E---------------------------------------------------------

e--------------------5------------------------------------
B---8-6-8-5-----------------------------------------------
G-----------7-5-7-------7h9p7-5-7-------------------------
D---------------------------------------------------------
A---------------------------------------------------------
E---------------------------------------------------------

e---------------------------------------------------------
B---3----3----3----3--3----3----3-3-3---------------------
G---2----2----2----2--2----2----2-2-2---------------------
D---0----0----0----0--0----0----0-0-0---------------------
A---------------------------------------------------------
E---------------------------------------------------------

e---------------------------------------------------------
B---3----3----3----3--3----3----3-3-3---------------------
G---2----2----2----2--2----2----2-2-2---------------------
D---0----0----0----0--0----0----0-0-0---------------------
A---------------------------------------------------------
E---------------------------------------------------------

e--------5-------5--7--5h7p5---5------------------8-7-5---
B-------------8--------------8------8-6-5-6-5-6-8---------
G---7-----------------------------------------------------
D---------------------------------------------------------
A---------------------------------------------------------
E---------------------------------------------------------

e---7-8-10-7h8p7------------8--7----7---------------------
B----------------10-8-10---------10---10------------------
G---------------------------------------------------------
D---------------------------------------------------------
A---------------------------------------------------------
E---------------------------------------------------------

e---------------------------------------------------------
B---3----3----3--------2----2----2------------------------
G---2----2----2--------2----2----2------------------------
D---0----0----0--------2----2----2------------------------
A---------------------------------------------------------
E---------------------------------------------------------

e---------------------------------------------------------
B---3----3----3--------2----2----2------------------------
G---2----2----2--------2----2----2------------------------
D---0----0----0--------2----2----2------------------------
A---------------------------------------------------------
E---------------------------------------------------------

e---10------------------10--12--10--12--------------------
B-------------13------------------------13----------------
G---------------------------------------------------------
D---------------------------------------------------------
A---------------------------------------------------------
E---------------------------------------------------------

e---10--12--13--10----------------------------------------
B-------------------13--------12--13--12--10---------10---
G---------------------------------------------12--9-------
D---------------------------------------------------------
A---------------------------------------------------------
E---------------------------------------------------------

e---------------------------------------------------------
B---2----2----2--------2----2----2------------------------
G---2----2----2--------2----2----2------------------------
D---2----2----2--------2----2----2------------------------
A---------------------------------------------------------
E---------------------------------------------------------

e---10------------------10--12--10--12--------------------
B-------------13------------------------13----------------
G---------------------------------------------------------
D---------------------------------------------------------
A---------------------------------------------------------
E---------------------------------------------------------

e---10--12--13--10----------------------------------------
B-------------------13--------12--13--12--10---------10---
G---------------------------------------------12--9-------
D---------------------------------------------------------
A---------------------------------------------------------
E---------------------------------------------------------

e---------------------------------------------------------
B---3----3----3--------3----3----3------------------------
G---2----2----2--------2----2----2------------------------
D---0----0----0--------0----0----0------------------------
A---------------------------------------------------------
E---------------------------------------------------------

e---------------------------------------------------------
B---10--------8--------10--8--10--11--8--------10--8--10--
G---------------------------------------------------------
D---------------------------------------------------------
A---------------------------------------------------------
E---------------------------------------------------------

e---------------------------------------------------------
B---11--8----10--8------8---------------------------------
G-------------------10-----9------7-----------------------
D-----------------------------10--------------------------
A---------------------------------------------------------
E---------------------------------------------------------

e---------------------------------------------------------
B---3----3----3----3--3----3----3-3-3---------------------
G---2----2----2----2--2----2----2-2-2---------------------
D---0----0----0----0--0----0----0-0-0---------------------
A---------------------------------------------------------
E---------------------------------------------------------

h - hammer on
p - pull off
Login or Register to remove this ad.