Castle City (Final Fantasy Crystal Chronicles: My Life as a King) Guitar Tab

Submitted: May 07, 2013 by sofakiller24

0
Download | Listen
Game: Final Fantasy Crystal Chronicles: My Life as a King
Composer(s): Kumi Tanioka
Style: Transcription
Series: Final Fantasy

AutoScroll: Slow | Medium | Fast
Castle City
Tabbed by sofakiller24

e|-------0--0-0-----------3-3--------------0--0-0---|
B|---1-3--------3-3--3-1----------0----1-3----------|
G|-0--------------------------0-2----0--------------|
D|--------------------------------------------------|
A|--------------------------------------------------|
E|--------------------------------------------------|

e|-------0-------3--3-3-1-0---------------0---------|
B|3-3--3---3-1-1------------3---3--3-3--3---3-1-1---|
G|--------------------------------------------------|
D|--------------------------------------------------|
A|--------------------------------------------------|
E|--------------------------------------------------|

e|----------0-1-3-1-0-----5-3-1-3-------0---3-------|
B|-1-3--3-3-----------3-1---------1-1-3---1---0-1---|
G|--------------------------------------------------|
D|--------------------------------------------------|
A|--------------------------------------------------|
E|--------------------------------------------------|

First tab :) Enjoy!
Login or Register to remove this ad.