Login or Register to remove this ad.

Let Your Thoughts Ride On Knowledge (Final Fantasy Adventure) Guitar Tab

Submitted: May 02, 2017 by Kabukibear

5
Average: 5 (4 votes)
Download | Listen
Game: Final Fantasy Adventure
Composer(s): Kenji Ito
Style: Fingerstyle
Series: Final Fantasy

AutoScroll: Slow | Medium | Fast
"Let Your Thoughts Ride On Knowledge"
~ Final Fantasy Adventure ~
Composed by: Kenji Ito
Arranged by: Justin Lincoln

Standard Tuning
Capo: Fret 2

                                            
E |--2--------5--------3--------2----------|
B |--------3--------3--------2--------2----|
G |-----2--------2--------2--------2-------|
D |--0-------------------------------------|
A |--------------------4-------------------|
E |----------------------------------------|

                                         
--0--------0--------------------0--2----|
--------1--------1--4--------4----------|
-----0--------0-----------4-------------|
-----------------------4-----------1----|
--3-----------------2--------2--4-------|
----------------------------------------|

                                         
--3--------5--------7--------5----------|
--------5--------5--------4--------4----|
-----4--------4--------4--------4-------|
--2-------------------------------------|
--------------------6-------------------|
----------------------------------------|

                                         
--3--------2--------0--------0--2--3----|
--------3--------3--------2-------------|
-----4--------4--------2----------------|
--0-----------------------------0--2----|
--------------------4--------4----------|
----------------------------------------|

                                         
--5--------9--------10-------9----------|
--------7--------10-------12-------10---|
-----6--------11-------11-------9-------|
--4-----------------9--------7----------|
----------------------------------------|
----------------------------------------|

                                         
--7--------7----------------------------|
--------8--------8--10-------10---------|
-----7--------7-----------11-------11---|
--5--------------------12-------12------|
--------------------9-------------------|
----------------------------------------|

                                              ^
--4--------4--------3-----0--------0---||-----10L---10---||
--------6--------6-----0-----2--3------||--3--10L---10---||
-----7--------7-----------------------o||-----11L---11---||
--------------------2-----------------o||--0-------------||
--8--------------------------0--2--4---||----------------||
---------------------------------------||----------------||
Login or Register to remove this ad.