Ads

Fuyuki Enkei (Fate/stay night) Guitar Tab

Submitted: Aug 25, 2015 by scarecrowlol (Last updated: Aug 27, 2015)

5
Average: 5 (3 votes)
Download | Listen
Game: Fate/stay night
Composer(s): Kenji Kawai
Style: Arrangement, Fingerstyle, Natural harmonics

AutoScroll: Slow | Medium | Fast
Title: Fuyuki Enkei
SubTitle: Fate Stay Night
Artist: Kenji Kawai
Tabber: Mitch Jackson
Tempo = 76
T/S = 4/4


   ♪♫•*¨*•.¸¸ CAPO 5 ¸¸.•*¨*•♫♪ 


     E  E  E  E  E  E  E  E       E  E  E  E  E  E  E  E       E  E  E  E  E  E  E  E       E  E  E  E  E  E  E  E
E |-----0-----7-----10---------|-----0-----7-----10---------|-----0-----7-----10---------|-----0-----7-----10---------|
B |-----------------------8----|-----------------------8----|-----------------------8----|--------------------1--3----|
G |--------------------0-------|--------------------0-------|--------------------0-------|--------------------0-------|
D |--------2-----4-------------|--------2-----4-------------|--------2-----4-------------|--------2-----4-------------|
A |--0-------------------------|--0-------------------------|--0-------------------------|--0-------------------------|
D |----------------------------|----------------------------|----------------------------|----------------------------|

                                                                                    |-3|     
     Q     E  E  E  E  E  E       Q     E  E  E  E  E  E       E  E  E  E  E  E  E  E  S      E  E  E  E  E  E  E  E
  |--0-----------0-----3--2----|--0--------3--5--7-----5----|--3--2--3--7--5--3--2--3p-2---|--0--0-----7-----10---------|
  |-----------3-----3----------|----------------------------|------------------------------|--------------------1--3----|
  |--------------------0-------|----------------------------|--------------------0---------|--------------------0-------|
  |--------2-----4-------------|--------2-----------4-------|--------2---------------------|--------2-----4-------------|
  |--0-------------------------|--0-----------2-------------|--0---------------------------|--0-------------------------|
  |----------------------------|----------------------------|--------------5---------------|----------------------------|


     Q     E  E  E  E  E  E       Q     E  E  E  E  E  E       E  E  E  E  E  E  E  E       E  E  E  E  E  E  E  E
  |--0-----------0-----3--2----|--0--------3--5--7-----5----|--7--5--3--7--5--3--2-------|--0--0-----7-----10---------|
  |-----------3-----3----------|----------------------------|-----------------------3----|--------------------1--3----|
  |--------------------0-------|----------------------------|--------------------0-------|--------------0-------------|
  |--------2-----4-------------|--------2-----------4-------|--------2-------------------|--------2-------------------|
  |--0-------------------------|--0-----------2-------------|--0-------------------------|--0-------------------------|
  |----------------------------|----------------------------|--------------5-------------|----------------------------|


     E  E  E  E  E  E  E.  T T      E  E  E  E  Q     E  E       E  E  E  E  E  E  E  S S      E  E  E  E  E  E  E  E   
  |--0--------0--5---------4p3---|--2--3--2-------------------|--0-----------5--------3-5---|--2-------------------------|
  |--1-----------------0---------|-----------0--------1--3----|--------1-----------0--------|-----------0-----3--1--3----|
  |-----2-----------0------------|--------------------0-------|-----------2-----------0-----|-----0--------------0-------|
  |--------2---------------------|--------------4-------------|-----2-----------2-----------|--------------4-------------|
  |------------------------------|--------2-------------------|-----------------------------|--------2-------------------|
  |--3-----------3---------------|--2-------------------------|--3-----------3--------------|--2-------------------------|


     E  E  E  E  E  E  E  S S      E  E  E  S S E  S S E  E       E  E  E  E  E  E  E.  T T      E  E  E  E  E  E  E  E
  |--0--------0--5--------3-5---|--7--------3-5-2----3---------|--0--------0--5---------------|-----------------0----------|
  |--------------------1--------|--------0----------------3----|--------------------3---2p1---|--0--------0--------1--3----|
  |-----------------0-----------|-----0----------------0-------|-----------------0------------|--1-----------1-------------|
  |--------2-----3--------------|------------------4-----------|--------2-----3---------------|--------2-------------------|
  |-----0-----------------------|--3------------3--------------|-----0------------------------|-----2----------------------|
  |--0--------------------------|------------------------------|--0---------------------------|--2-------------------------|

                                                                                    |-3|  
     E  E  E  E  E  E  E  E       E  E  E  E  E  E  E  E       E  E  E  E  E  E  E  E  S      E  E  E  E  E  E  E  E     
  |--0-----------0-----3--2----|--0--------3--5--7-----5----|--3--2--3--7--5--3--2--3p-2---|--0--0-----7-----10---------|
  |-----------3-----3----------|----------------------------|------------------------------|--------------------1--3----|
  |--------2-----------0-------|--------2-------------------|--------2-----------0---------|--------------------0-------|
  |-----2--------4-------------|-----2--------------4-------|-----2------------------------|--------2-----4-------------|
  |--0-------------------------|--0-----------2-------------|--0---------------------------|--0-------------------------|
  |----------------------------|----------------------------|--------------5---------------|----------------------------|


     E  E  E  E  E  E  E  E       E  E  E  E  E  E  E  E       E  E  E  E  E  E  E  E       E  E  E  E  E  E  E  E
  |--0-----------0-----3--2----|--0--------3--5--7-----5----|--7--5--3--7--5--3--2-------|--0--0-----7-----10---------|
  |-----------3-----3----------|----------------------------|-----------------------3----|-----------------------8----|
  |--------2-----------0-------|--------2-------------------|--------------------0-------|--------------------0-------|
  |-----2--------4-------------|-----2--------------4-------|--------2-------------------|--------2-----4-------------|
  |--0-------------------------|--0-----------2-------------|--0-------------------------|--0-------------------------|
  |----------------------------|----------------------------|--------------5-------------|----------------------------|

                                                                                 NH NH
     E  E  E  E  E  E  E  E       E  E  E  E  E  E  E  E       E  E  E  E  E  E  E  E       W
  |-----0-----7-----10---------|-----0-----7-----10---------|-----0-----7-----10---------|----------------------------||
  |-----------------------8----|-----------------------8----|----------------------<7>---|--L-------------------------||
  |--------------------0-------|--------------------0-------|----------------------------|----------------------------||
  |--------2-----4-------------|--------2-----4-------------|--------2-----4-------------|----------------------------||
  |--0-------------------------|--0-------------------------|--0----------------<12>-----|--L-------------------------||
  |----------------------------|----------------------------|----------------------------|----------------------------||


Login or Register to remove this ad.

4 comments on Fuyuki Enkei

Big stretch for nothing

E E E E E E E E
E |-----0-----7-----10----3----|
B |----------------------------|
G |--------------------0-------|
D |--------2-----4-------------|
A |--0-------------------------|
D |----------------------------|

Is more easily played like this

E E E E E E E E
E |-----0-----7-----10---------|
B |-----------------------8----|
G |--------------------0-------|
D |----------------------------|
A |--0-----7-----9-------------|
D |----------------------------|

Difference in playing

Difference in playing preference really, while i agree its much easier to play that way and would encourage anyone who struggles to make the stretch to play it that way, i prefer to let the bass line ring out rather than cut it short as it just keeps a more 'full chord' sound. I definitely agree with changing the final lead note to 8 on the B string, will update the TAB :3

Another my favourite melody.

5

Another my favourite melody. Thank you!

ty :)

ty :)