Ads

Requiem For Humanity (Fallout 3) Guitar Tab

Submitted: May 27, 2014 by Matatiahu (Last updated: May 29, 2014)

4
Average: 4 (1 vote)
Download | Listen
Game: Fallout 3
Composer(s): Inon Zur
Style: Arrangement, Artificial harmonics, Fingerstyle, Natural harmonics

Click here for a video example.

AutoScroll: Slow | Medium | Fast
                       Fallout 3
                      Requiem For Humanity
                            Inon Zur

Tune: standard


E||--0-----------|--0-----------|--0-----------|--0-----------
B||--5-----------|--5-----------|--5-----------|--6-----------
G||--------------|--------------|--------------|--------<>12--
D||--------------|--------------|--------------|--------------
A||--------------|--------------|--------------|--------------
E||--------------|--------------|--------------|--------------

--0-----------|--0-----------|--0-----------|--0-----------
--6-----------|--6-----------|--6-----------|--6-----------
--7-----------|--7-----------|--7-----------|--6-----------
--------------|--------------|--------------|--------------
--------------|--------------|--------------|--------------
--0-----------|--------------|--------------|--------------

--0-----------|--0-----------|--------------|--------------
--8-----------|--------------|--------0-----|--------------
--6-----------|--------------|--5-----------|--0-----------
--------------|--------------|--------------|--------3-----
--------------|--------------|--------------|--------------
--0-----------|--0-----------|--0-----------|--0-----------

--------------|--------------|--------------|--------------
--------------|--------------|--------------|--------------
--------------|--------------|--------------|--------------
--------------|--1-----1-----|--------------|--1-----1-----
--5-----5-----|--------------|--4-----4-----|--------------
--0-----------|--0-----------|--0-----------|--0-----------

--------------|--------------|--0-----0-----|--1-----1-----
--------------|--------------|--------------|--------------
--------------|--------------|--------------|--------------
--2-----2-----|--2-----2-----|--------2-----|--------2-----
-----2-----2--|-----2-----2--|-----2-----2--|-----2-----2--
--0-----0-----|--0-----0-----|--0-----------|--0-----0-----

--------------|--0-----------|--0-----------|--------------
--3-----3-----|--2-----2-----|--------------|--0-----------
--------------|--------------|--------------|--------------
--------2-----|--------2-----|--------2-----|--------2-----
-----2-----2--|-----2-----2--|-----2-----2--|-----2-----2--
--0-----------|--0-----------|--0-----------|--0-----------

--------------|--------------|--------------|--------------
--1-----0-----|--------------|--------------|--------------
--------------|--0-----------|--------------|--------------
--------2-----|--------3-----|--0-----0-----|--1-----1-----
-----2-----2--|-----2--------|--------------|--------------
--0-----------|--0-----------|--0-----------|--0-----------

--------------|--------------|--0-----0-----|--0-----0-----
--------------|--------------|--------------|--------------
--------------|--------------|--------------|--------------
--------------|--1-----1-----|--2-----2-----|--2-----2-----
--4-----4-----|--------------|-----2-----2--|-----2-----2--
--0-----------|--0-----------|--0-----------|--0-----------

--0-----0-----|--0-----0-----|--0-----0-----|--0-----3-----
--5-----5-----|--5-----5-----|--5-----5-----|--5-----5-----
--------------|--------------|--------------|--------2-----
--------------|--------------|--------------|--------------
-----2-----2--|--------------|--------------|--------------
--0-----------|--------------|--------------|--------------

--------------|--2-----------|--------------|--------3-----
--------------|-----3--0-----|--------------|-----5--5-----
--------------|--------0-----|--------------|--------2-----
--------------|--------------|--------2-----|--------------
--------0-----|--2-----------|--------2-----|--------------
--------------|--------------|--0-----0-----|--------------

--------2-----|--------------|--2-----------|--------2-----
-----------3--|--0--------3--|--4-----------|--0-----------
--------------|--0-----------|--------0-----|--0-----------
--------------|-----2--------|--------------|--------------
--0-----------|--2-----------|--------------|--------------
--------------|--------------|--------------|--3-----------

--0-----------|--------2-----|--------3-----|--5-----0-----
--------------|-----3--------|--------------|--------------
--------------|--------------|--------------|--------------
--4-----------|--2-----2--1--|--------------|--------------
--------------|-----2--------|--------2-----|--------------
--------------|--2-----------|--------------|--------------

--0-----------|--------------|--10-------8--|--6-----------
--0-----3-----|--1-----------|--10---------8|--3-----------
--------------|--------0-----|--7-----------|--3-----3-----
--2-----------|-----2--------|--------------|--5--5-----5--
--------------|--3-----------|--------------|--5-----------
--------------|--------------|--------------|--3-----------

--------------|--0-----0-----|-----------0--|--3-----------
--------7--3--|--------------|--3-----------|--------------
--------------|--------------|--------------|--------------
-----5--------|--------2-----|--------2-----|--------2-----
--5-----------|-----2-----2--|-----2--------|-----2-----2--
--------------|--0-----------|--0-----------|--0-----------

--------2-----|--5-----------|--------3--0--|--5-----5-----
-----------3--|--------0-----|--------0-----|--------------
--------------|-----0-----0--|-----0-----0--|--------2-----
--------2-----|--------------|--------------|-----2-----2--
-----2-----2--|--------------|--------------|--0-----------
--0-----------|--3-----------|--3-----------|--------------

--------3-----|--7-----------|-----------0--|--7-----7-----
-----------5--|--------------|--------------|--------------
--------2-----|--------------|--------------|--------0-----
-----2-----2--|--------9-----|--------------|-----0-----0--
--0-----------|-----7-----7--|--------------|--------------
--------------|--0-----------|--0-----------|--3-----------

--------5--10-|--7-----------|--------------|--------------
--------------|--------------|--------------|--------------
--------0-----|--9-----11----|--7-----7-----|--------------
-----0-----0--|-----9-----9--|-----9-----9--|--------------
--------------|--0-----------|--------------|-----------2--
--3-----------|--------------|--------------|--------------

--------------|--------------|--0-----0-----|--0-----0-----
--------------|--------------|--5-----5-----|--5-----5-----
--------------|--------------|--------------|--------------
--0-----2--3--|--------------|--------------|--------------
--------------|--2-----------|-----2-----2--|-----2-----2--
--------------|--------------|--0-----------|--------------

--0-----0-----|--0-----0-----|--0-----0-----|--0-----0-----
--5-----5-----|--5-----5-----|--5-----5-----|--5-----5-----
--------------|--------------|--------------|--------------
--------------|--------------|--------------|--------------
-----2-----2--|-----2-----2--|-----2-----2--|-----2-----2--
--0-----------|--3-----------|--5-----------|--0-----------

--0-----0-----|--0-----0-----|--0-----------|--0-----------
--5-----5-----|--5-----5-----|--5-----------|--5-----------
--------------|--------------|--------------|--------------
--------------|--------------|--------------|--------------
-----2-----2--|-----2-----2--|--------------|--------------
--0-----3-----|--0-----------|--0-----------|--0-----------

--------------|--------------|--------------|--------------
--------0-----|--3-----------|-----2--------|---<>2--------
--------------|--------------|--------2-----|------<>2-----
--------------|--------------|-----------2--|---------<>2--
--------------|--------------|--------------|--------------
--0-----0-----|--------------|--------------|--------------

--------------|--------------|--------------|--------------
--0-----3-----|--------------|--0-----------|--------------
--------------|--------0-----|--0-----------|--2-----------
--------2-----|--------------|-----------5--|-----4--0-----
--------2-----|--------------|--------------|--------------
--------0-----|--0-----------|--3-----------|--------------

--------------|--------------|--0-----0-----|--0-----0-----
--------------|--------------|--5-----5-----|--5-----5-----
--------------|--------------|--------------|--------------
--2-----------|-----------2--|--------------|--------------
-----4--0-----|--2-----2-----|--------------|--------------
--------------|-----0--------|--0-----------|--------------

--0-----0-----|
--5-----5-----|
--------------|
--------------|
--------------|
--------------|
Login or Register to remove this ad.