Red Canyon (F-Zero) Guitar Tab

Submitted: Aug 27, 2014 by ltm_1988

5
Average: 5 (1 vote)
Download | Listen
Game: F-Zero
Composer(s): Yumiko Konki
Style: Arrangement, Fingerstyle

AutoScroll: Slow | Medium | Fast
Red Canyon
F-Zero
Yumiko Kanki
ltm_1988
8/26/2014

    E   E   E   E   E   S E   S S S   E   E   E   E   E   S E   S S S
E||---------------------------------|---------------------------------|
B||---------------------------------|---------------------------------|
G||*--------------------1-----3-----|---------------------1-----3-----|
D||*----3-------3-----------------1-|-----3-------3-----------------1-|
G||-----------------1-----3---------|-----------------1-----3---------|
D||-3-------3-------------------1---|-3-------3-------------------1---|

    E   E   E   E   E   S E   S S S   E   E   E   E   E   S E   S S S
E||---------------------------------|---------------------------------|
B||---------------------------------|---------------------------------|
G||---------------------1-----3-----|---------------------1-----3-----|
D||-----3-------3-----------------1-|-----3-------3-----------------1-|
G||-----------------1-----3---------|-----------------1-----3---------|
D||-3-------3-------------------1---|-3-------3-------------------1---|

    S S S S E   E   E   S E   S S S   S S S S E   E   E   S E   S S S
E||-------1---------------1---4-6---|-------1-------------------------|
B||-4-4---1-------------4-1---4-6---|-4-4---1-------------------------|
G||-3-3-----------------3-----3-----|-3-3-----------------1-----3-----|
D||-----3-------3-------6-----------|-----3-------3-----------------1-|
G||-----------------1-----3-----8-8-|-----------------1-----3---------|
D||-3-------3-----------------------|-3-------3-------------------1---|

    S S S S E   E   E   S E   S S S   S S S S E   E   E   S E   S S S
E||-------1---------------1---4-6---|-------1-------------------------|
B||-4-4---1-------------4-1---4-6---|-4-4---1-------------------------|
G||-3-3-----------------3-----3-----|-3-3-----------------1-----3-----|
D||-----3-------3-------6-----------|-----3-------3-----------------1-|
G||-----------------1-----3-----8-8-|-----------------1-----3---------|
D||-3-------3-----------------------|-3-------3-------------------1---|

    S S S S E   E   E   S E   S S S   S S S S E   E   E   S E   S S S
E||-------1---------------1---4-6---|-------1-------------------------|
B||-4-4---1-------------4-1---4-6---|-4-4---1-------------------------|
G||-3-3-----------------3-----3-----|-3-3-----------------1-----3-----|
D||-----3-------3-------6-----------|-----3-------3-----------------1-|
G||-----------------1-----3-----8-8-|-----------------1-----3---------|
D||-3-------3-----------------------|-3-------3-------------------1---|

    S S S S E   E   E   S E   S S S   S S S S E   E   E   S E   S S S
E||-------1---------------1---4-6---|-------1-------------------------|
B||-4-4---1-------------4-1---4-6---|-4-4---1-------------------------|
G||-3-3-----------------3-----3-----|-3-3-----------------1-----3-----|
D||-----3-------3-------6-----------|-----3-------3-----------------1-|
G||-----------------1-----3-----8-8-|-----------------1-----3---------|
D||-3-------3-----------------------|-3-------3-------------------1---|

    S S S S E   E   E   S E   S S S   E   S S E   E   E   S E   S S S
E||-8-6-4-1---------------------1---|-3-----1-------------------------|
B||-8-6-4-1-------------1-3---4-1---|-3-----1-------------------------|
G||---------------------0-2---3-----|---------------------1-----3-----|
D||-----3-------3-----------------1-|-----3-------3-----------------1-|
G||-10--------------1---1-3---------|-----------------1-----3---------|
D||---------3-------------------1---|-3-------3-------------------1---|

    S S S S E   E   E   S E   S S S   E   S S E   E   E   S E   S S S
E||-8-6-4-1---------------------1---|-3-----1-------------------------|
B||-8-6-4-1-------------1-3---4-1---|-3-----1-------------------------|
G||---------------------0-2---3-----|---------------------1-----3-----|
D||-----3-------3-----------------1-|-----3-------3-----------------1-|
G||-10--------------1---1-3---------|-----------------1-----3---------|
D||---------3-------------------1---|-3-------3-------------------1---|

    S S E   E   E   E   S E   S S S   E   S S E   E   E   S S S S S S
E||---1-----1~------1-----1-----1---|-3-----1-------------------------|
B||---1-----1~------1-----1-----1---|-3-----1-------------1---3-4-----|
G||---------------------1-----3-----|---------------------1-----3-----|
D||-----3-------3-----------------1-|-----3-------3-----------------1-|
G||-----------------1-----3---------|-----------------1-----3---------|
D||-3-------3-------------------1---|-3-------3-------------------1---|

    S S E   E   E   E   S E   S S S   E   S S E   E   E   S S S S S S
E||---1-----1~------1-----1-----1---|-3-----1-------------------------|
B||---1-----1~------1-----1-----1---|-3-----1-------------1---3-4-----|
G||---------------------1-----3-----|---------------------1-----3-----|
D||-----3-------3-----------------1-|-----3-------3-----------------1-|
G||-----------------1-----3---------|-----------------1-----3---------|
D||-3-------3-------------------1---|-3-------3-------------------1---|

    S S S S E   E   E   S E   S S S   E   S S E   E   E   S E   S S S
E||-8-6-4-1---------------------1---|-3-----1-------------------------|
B||-8-6-4-1-------------1-3---4-1---|-3-----1-------------------------|
G||---------------------0-2---3-----|---------------------1-----3-----|
D||-----3-------3-----------------1-|-----3-------3-----------------1-|
G||-10--------------1---1-3---------|-----------------1-----3---------|
D||---------3-------------------1---|-3-------3-------------------1---|

    S S S S E   E   E   S E   S S S   E   S S E   E   E   S E   S S S
E||-8-6-4-1---------------------1---|-3-----1-------------------------|
B||-8-6-4-1-------------1-3---4-1---|-3-----1-------------------------|
G||---------------------0-2---3-----|---------------------1-----3-----|
D||-----3-------3-----------------1-|-----3-------3-----------------1-|
G||-10--------------1---1-3---------|-----------------1-----3---------|
D||---------3-------------------1---|-3-------3-------------------1---|

    S S S S E   E   E   S E   S S S   S S S S E   E   E   S E   S S S
E||---------------------1-3---6-8---|---------------------------------|
B||-6-6---8-------------1-3---6-8---|-6-6---8-------------------------|
G||-5-5---7-----0-------3-----------|-5-5---7-----0-------3-----3-----|
D||-----5---------------------8-----|-----5-------------------------3-|
G||-----------------3-----3----10-10|-----------------3-----3---------|
D||-5-------5-----------------------|-5-------5-------------------3---|

    S S S S E   E   E   S E   S S S   S S S S E   E   E   S E   S S S
E||---------------------1-3---6-8---|---------------------------------|
B||-6-6---8-------------1-3---6-8---|-6-6---8-------------------------|
G||-5-5---7-----0-------3-----------|-5-5---7-----0-------3-----3-----|
D||-----5---------------------8-----|-----5-------------------------3-|
G||-----------------3-----3----10-10|-----------------3-----3---------|
D||-5-------5-----------------------|-5-------5-------------------3---|

    S S S S E   E   E   S S S S S S   S S S S E   E   E   S E   S S S
E||-----------------------------1---|-3~----------1~------------------|
B||-8-------6-----------3-----1-----|---------------------------------|
G||-0-0---------5-------3-2-3-3-----|-------0-----0-------3-----3-----|
D||-----5-7-----5-------5-------0-3-|-3-3-5-------------------------3-|
G||-----------------3-----3---------|-----------------3-----3---------|
D||-5-------5-------------------3---|-5-------5-------------------3---|

    S S S S E   E   E   S S S S S S   S S S S E   E   E   S E   S S S
E||-----------------------------1---|-3~----------1~------------------|
B||-8-------6-----------3-----1-----|---------------------------------|
G||-0-0---------5-------3-2-3-3-----|-------0-----0-------3-----3-----|
D||-----5-7-----5-------5-------0-3-|-3-3-5-------------------------3-|
G||-----------------3-----3---------|-----------------3-----3---------|
D||-5-------5-------------------3---|-5-------5-------------------3---|

    S S E   E   E   E   S E   S S S   S S E   E   E   E   S E   S S S
E||---------------------------------|---------------------------------|
B||---------------------------------|---------------------------------|
G||-----0-------0---1---3-1---3-1---|---3-0---3~------3---3-3---3-3---|
D||---6-----6~------1-----1-----1-3-|---3-----3~--5---3-----3-----3-3-|
G||---8-----8~------3-----3---------|-----------------3-----3---------|
D||-5-------5-------------------3---|-5-------5-------------------3---|

    S S E   E   E   E   S E   S S S   E   E   E   E   E   S E   S S S
E||---------------------------------|---------------------------------|
B||-----------------1-----1-----1---|-------------3~------------------|
G||---5-----5~------0---3-0---3-0---|-7---0-------0-------3-----3-----|
D||---5-5---5~--5-----------------3-|-7-----------7~----------------3-|
G||-----------------3-----3---------|-----------------3-----3---------|
D||-5-------5-------------------3---|-5-------5-------------------3---|

    Q       Q       Q       S S E     Q       Q       S S S S S S S S    W
E||---------------------------------|---------------------------------||-1-
B||---------------------------------|---------------------------------||-1-
G||---------------------------------|--------------------------------*||---
D||---------------------------------|--------------------------------*||-3-
G||-x-------x-------x-------x-x-x---|-x-------x-------x-x-x-x-x-x-x-x-||---
D||-x-------x-------x-------x-x-x---|-x-------x-------x-x-x-x-x-x-x-x-||-3-
Login or Register to remove this ad.