Fire Field (F-Zero) Guitar Tab

Submitted: Nov 29, 2014 by ltm_1988

0
Download | Listen
Game: F-Zero
Composer(s): Yumiko Konki
Style: Arrangement, Fingerstyle

AutoScroll: Slow | Medium | Fast
Fire Field
F-Zero
Yumiko Kanki
ltm_1988
11/27/2014

    E   E   E   Q       E   E   E     E   E   E   Q       E   E   E
E||-8-------------------------------|-6-------------------------------|
A#|---------------------------------|-0-------------------------------|
F||*--------------------------------|-------------0-------------------|
C||*------------8-------7-------8---|-----8---7-----------0-----------|
G||-10--8---10--------------10------|-------------------------6---8---|
C#|---------------------------------|---------------------------------|

    E   E   E   Q       E   E   E     E   E   E   Q       E   E   E
E||---------------------------------|---------------------------------|
A#|-7-------------------------------|-7-------------------------------|
F||-0-------0---------------0-------|-5-----------0-------------------|
C||-------------8-------7-------8---|-----8---7-----------0-----------|
G||-----8---------------------------|-------------------------6---8---|
C#|---------------------------------|---------------------------------|

    E   E   E   Q       E   E   E     E   E   E   Q       E   E   E
E||-8-------------------------------|-6-------------------------------|
A#|---------------------------------|-0-------------------------------|
F||---------------------------------|-------------0-------------------|
C||-------------8-------7-------8---|-----8---7-----------0-----------|
G||-10--8---10--------------10------|-------------------------6---8---|
C#|---------------------------------|---------------------------------|

    E   E   E   Q       E   E   E     E   E   E   E   E   E   E   E
E||---------------------------------|-----4---3-----------------------|
A#|-7-------------------------------|-0-----------5---2---1---0-------|
F||-0-------0---------------0-------|-----3---2---0---------------3---|
C||-------------8-------7-------8---|---------------------0---1---3---|
G||-----8---------------------------|---------------------------------|
C#|---------------------------------|---------------------------------|

    E   E   E   Q       E   E   E     E   E   E   Q.          E   E
E||---------------------------------|---------------------------------|
A#|---------------------------------|---------------------------------|
F||-0-----------0-------3-----------|-0-------------------------------|
C||-----3-----------------------3---|-------------0-----------3-------|
G||-------------1-------0-------1---|-3---1---0-----------------------|
C#|-4---2---4---------------4-------|-------------4-----------0---2---|

    E   E   E   Q       E   E   E     E   E   E   Q.          E   E
E||---------------------------------|---------------------------------|
A#|---------------------------------|-2-------------------------------|
F||-0-----------0-----------3-------|-------------3-------------------|
C||-----3---------------------------|-------------------------3-------|
G||-------------1-------0-------1---|-3---1---0-----------------------|
C#|-4---2---4---------------4-------|-------------4-----------0---2---|

    E   E   E   Q       E   E   E     E   E   E   Q.          E   E
E||---------------------------------|---------------------------------|
A#|---------------------------------|---------------------------------|
F||-0-----------0-------3-----------|-0-------------------------------|
C||-----3-----------------------3---|-------------0-----------3-------|
G||-------------1-------0-------1---|-3---1---0-----------------------|
C#|-4---2---4---------------4-------|-------------4-----------0---2---|

    E   E   E   Q       E   E   E     E   E   E   Q.          E   E
E||---------------------------------|---------------------------------|
A#|---------------------------------|-2-------------------------------|
F||-0-----------0-----------3-------|-------------3-------------------|
C||-----3---------------------------|-------------------------3-------|
G||-------------1-------0-------1---|-3---1---0-----------------------|
C#|-4---2---4---------------4-------|-------------4-----------0---2---|

    E   E   E   E   E   E   E   E     E   E   E   Q.          E   E
E||---------------------------------|---------------------------------|
A#|---------------------------------|---------------------------------|
F||---------------------------------|-------------------------3-------|
C||---------------------0-----------|-0-------0---3-------------------|
G||-----1---3---1---3---0---1---3---|-3---3---0-----------------------|
C#|-4---2---4---------------4-------|-------------4-----------0---2---|

    E   E   E   Q       E   E   E     E   E   E   Q.          E   E
E||---------------------------------|---------------------------------|
A#|---------------------------------|---------------------------------|
F||-0-----------0-------3-----------|-0-------------------------------|
C||-----3-----------------------3---|-------------0-----------3-------|
G||-------------1-------0-------1---|-3---1---0-----------------------|
C#|-4---2---4---------------4-------|-------------4-----------0---2---|

    E   E   E   Q       E   E   E     E   E   E   Q.          E   E
E||---------------------------------|---------------------------------|
A#|---------------------------------|-2-------------------------------|
F||-0-----------0-----------3-------|-------------3-------------------|
C||-----3---------------------------|-------------------------3-------|
G||-------------1-------0-------1---|-3---1---0-----------------------|
C#|-4---2---4---------------4-------|-------------4-----------0---2---|

    E   E   E   Q       E   E   E     E   E   E   Q.          E   E
E||---------------------------------|---------------------------------|
A#|---------------------------------|---------------------------------|
F||-0-----------0-------3-----------|-0-------------------------------|
C||-----3-----------------------3---|-------------0-----------3-------|
G||-------------1-------0-------1---|-3---1---0-----------------------|
C#|-4---2---4---------------4-------|-------------4-----------0---2---|

    E   E   E   Q       E   E   E     E   E   E   Q.          E   E
E||---------------------------------|---------------------------------|
A#|---------------------------------|-2-------------------------------|
F||-0-----------0-----------3-------|-------------3-------------------|
C||-----3---------------------------|-------------------------3-------|
G||-------------1-------0-------1---|-3---1---0-----------------------|
C#|-4---2---4---------------4-------|-------------4-----------0---2---|

    Q       E   Q       E   E   E     Q.          Q.          Q
E||---------------------------------|---------------------------------|
A#|---------------------------------|---------------------------------|
F||-0-----------3-----------0-------|---------------------------------|
C||---------------------------------|-0-------------------------------|
G||---------------------------------|---------------------------------|
C#|-0-------0---2-------0---2---2---|-4-----------2-----------4-------|

    Q       E   Q       E   E   E     Q.          Q.          Q
E||---------------------------------|---------------------------------|
A#|---------------------------------|---------------------------------|
F||-0-----------3-----------0-------|---------------------------------|
C||---------------------------------|-0-------------------------------|
G||---------------------------------|---------------------------------|
C#|-0-------0---2-------0---2---2---|-4-----------2-----------4-------|

    E   E   E   Q       E   Q         Q.          Q       E   E   E
E||---------------------------------|---------------------------------|
A#|---------------------------------|---------------------------------|
F||---------------------------------|---------------------------------|
C||-1-------------------------------|-------------------------1-------|
G||-------------3-------------------|-------------3-------------------|
C#|-3---2---3---3-------2---5-------|-5-----------3-------2---3---2---|

    E   E   E   Q       E   Q         Q.          Q       E   E   E
E||---------------------------------|---------------------------------|
A#|---------------------------------|---------------------------------|
F||---------------------------------|---------------------------------|
C||---------------------------------|---------------------------------|
G||-4-----------1-------------------|-------------1-----------4-------|
C#|-5---3---5-----------3---3-------|-3-------------------3---5---3---|

    E   E   E   E   E   E   E   E     E   E   E   E   E   E   E   E
E||---------------------------------|---------------------------------|
A#|-------------------------0-------|---------------------------------|
F||-------------0-------0-------0---|-----0---------------------------|
C||-1-------1-------1---------------|-1-------1-----------------------|
G||-----3---------------------------|-------------3-------3-----------|
C#|-2---2---2---2-------0---2---0---|-2---2---2---2---4---0---4---0---|

    Q.          Q.          Q         Q.          Q.          Q
E||---------------------------------|---------------------------------|
A#|---------------------------------|---------------------------------|
F||---------------------------------|-1-----------0-------------------|
C||-------------------------3-------|-------------------------1-------|
G||---------------------------------|---------------------------------|
C#|-5-----------5-----------0-------|-2-----------5-----------4-------|

    Q.          Q.          Q         E   E   E   E   E   E   E   E
E||---------------------------------|---------------------------------|
A#|---------------------------------|---------------------------------|
F||---------------------------------|---------------------------------|
C||-3-------------------------------|---------------------------------|
G||-------------------------1-------|-1---1---1---1---1---1---1---1---|
C#|-2-----------5-------------------|---------------------------------|

    E   E   E   Q       E   E   E     E   E   E   Q.          E   E
E||---------------------------------|---------------------------------|
A#|---------------------------------|---------------------------------|
F||-0-----------0-------3-----------|-0-------------------------------|
C||-----3-----------------------3---|-------------0-----------3-------|
G||-------------1-------0-------1---|-3---1---0-----------------------|
C#|-4---2---4---------------4-------|-------------4-----------0---2---|

    E   E   E   Q       E   E   E     E   E   E   Q.          E   E
E||---------------------------------|---------------------------------|
A#|---------------------------------|-2-------------------------------|
F||-0-----------0-----------3-------|-------------3-------------------|
C||-----3---------------------------|-------------------------3-------|
G||-------------1-------0-------1---|-3---1---0-----------------------|
C#|-4---2---4---------------4-------|-------------4-----------0---2---|

    E   E   E   Q       E   E   E     E   E   E   Q.          E   E
E||---------------------------------|---------------------------------|
A#|---------------------------------|---------------------------------|
F||-0-----------0-------3-----------|-0-------------------------------|
C||-----3-----------------------3---|-------------0-----------3-------|
G||-------------1-------0-------1---|-3---1---0-----------------------|
C#|-4---2---4---------------4-------|-------------4-----------0---2---|

    E   E   E   Q       E   E   E     E   E   E   Q.          E   E
E||---------------------------------|---------------------------------|
A#|---------------------------------|-2-------------------------------|
F||-0-----------0-----------3-------|-------------3-------------------|
C||-----3---------------------------|-------------------------3-------|
G||-------------1-------0-------1---|-3---1---0-----------------------|
C#|-4---2---4---------------4-------|-------------4-----------0---2---|

    E   E   E   Q       E   E   E     E   E   E   Q.          E   E
E||---------------------------------|---------------------------------|
A#|---------------------------------|---------------------------------|
F||-0-------------------------------|---------------------------------|
C||---------------------------------|---------------------------------|
G||-------------1-------0-------1---|-3---1---0-----------------------|
C#|-4---2---4---------------4-------|-------------4-----------0---2---|

    E   E   E   E   E   E   E   E     E   E   E   E   E   E   E   E
E||---------------------------------|---------------------------------|
A#|---------------------------------|---------------------0---2-------|
F||---------------------------------|-----0---3---0---3-----------3---|
C||---------------------0---3---0---|-3-------------------------------|
G||-----1---3---1---3---------------|-1-------1---0-------0-----------|
C#|-4---4---4---4---4---4---4---4---|-------------------------2---2---|

    E   E   E   E   E   E   E   E     Q       E   Q.          E   E
E||---------------------------------|---------------------------------|
A#|---------------------------------|---------------------------------|
F||-0-------------------------------|---------------------------------|
C||-------------0-------3-----------|-0-----------------------3-------|
G||-------------------------3-------|-1-------1---1-----------1---1---|
C#|-4---4---4---4---4---4---4---4---|---------------------------------|

    E   E   E   E   E   E   E   E     E   E   E   E   E   E   E   E
E||---------------------------------|---------------------------------|
A#|---------------------------------|---------------------------------|
F||---------------------------------|-----0---3-------0---3-------0---|
C||---------------------0---3---0---|-3-----------3-----------3-------|
G||-----1---3---1---3---------------|-1-------1---3-------3---1---1---|
C#|-4---4---4---4---4---4---4---4---|---------------------------------|

    E   E   E   E   E   E   E   E     H.                      E   E
E||---------------------------------|---------------------------------|
A#|---------------------------------|---------------------------------|
F||---------------------------------|---------------------------------|
C||-0-------------------------------|---------------------------------|
G||-------------4-------3-------1---|---------------------------------|
C#|-4---4---4---4---4---4---4---4---|-4-----------------------2---2---|

    E   E   E   E   E   E   E   E     E   E   E   E   E   E   E   E
E||---------------------------------|---------------------------------|
A#|---------------------------------|---------2-----------------------|
F||-0-------3---------------3-------|-0---------------0---------------|
C||-----------------0---------------|---------------------------------|
G||---------------------------------|-------------------------3-------|
C#|-0---0---0---0---0---0---0---0---|-0---0---0---0---0---0---0---0---|

    E   E   E   E   E   E   E   E     E   E   E   E   E   E   E   E
E||---------------------------------|---------------------------------|
A#|---------------------------------|---------2-------2-------2-------|
F||-0---------------0---------------|-0-------------------------------|
C||---------------------------------|---------------------------------|
G||---------3---------------3-------|---------------------------------|
C#|-2---2---2---2---2---2---2---2---|-2---2---2---2---2---2---2---2---|

    E   E   E   E   E   E   E   E     E   E   E   E   E   E   E   E
E||---------------------------------|---------------------------------|
A#|---------------------------------|---------------------------------|
F||-0-------3-----------0-----------|---------0-----------------------|
C||-------------3-----------0-------|-3-----------0-------------------|
G||---------------------------------|---------------------1-----------|
C#|-4---4---4---4---4---4---4---4---|-4---4---4---4---4---4---4---4---|

    E   E   E   E   E   E   E   E     E   Q       Q       E   E   E
E||---------------------------------|---------------------------------|
A#|---------------------------------|---------------------------------|
F||-----0---3-------0---------------|---------------------------------|
C||-3-----------3-----------0---3---|---------------------------------|
G||---------------------1-----------|-------------5-------4---3---1---|
C#|-4---4---4---4---4---4---4---4---|-4---2---------------------------|

    E   E   E   E   E   E   E   E     E   E   E   E   E   E   E   E
E||---------------------------------|---------------------------------|
A#|---------------------------------|---------2-----------------------|
F||-0-------3---------------3-------|-0---------------0---------------|
C||-----------------0---------------|---------------------------------|
G||---------------------------------|-------------------------3-------|
C#|-0---0---0---0---0---0---0---0---|-0---0---0---0---0---0---0---0---|

    E   E   E   E   E   E   E   E     E   E   E   E   E   E   E   E
E||---------------------------------|---------------------------------|
A#|---------------------------------|---------2-------2-------2-------|
F||-0---------------0---------------|-0-------------------------------|
C||---------------------------------|---------------------------------|
G||---------3---------------3-------|---------------------------------|
C#|-2---2---2---2---2---2---2---2---|-2---2---2---2---2---2---2---2---|

    E   E   E   E   E   E   E   E     E   E   E   E   E   E   E   E
E||---------------------------------|---------------------------------|
A#|---------------------------------|---------------------------------|
F||-3-------------------3---3---3---|---------------------------------|
C||---------------------------------|-3-------------------3---3---3---|
G||---------------------------------|---------------------------------|
C#|-4---4---4---4---4---4---4---4---|-4---4---4---4---4---4---4---4---|

    E   E   E   E   E   E   E   E     E   Q       Q       E   E   E   x2 W
E||---------------------------------|---------------------------------||---
A#|---------------------------------|---------------------------------||---
F||-0-------------------0---0---0---|-0------------------------------*||-3-
C||---------------------------------|-----3-------0------------------*||-5-
G||---------------------------------|---------------------4---3---1---||-5-
C#|-4---4---4---4---4---4---4---4---|-4---2---------------------------||-4-
Login or Register to remove this ad.