Ads

Long Way Down (The Evil Within) Guitar Tab

Submitted: Nov 12, 2015 by scarecrowlol

5
Average: 5 (3 votes)
Download | Listen
Game: The Evil Within
Composer(s): Masafumi Takada
Style: Arrangement, Fingerstyle, Pinch harmonics

AutoScroll: Slow | Medium | Fast
Title: Long Way Down
SubTitle: The Evil Within
Artist: Gary Numan
Tabber: Mitch Jackson
Tempo = 80
T/S = 4/4


LEGEND:

s = Slide
~ = Vibrato
h = Hammer On
g = Grace Note
. = Palm Mute
x = Dead Note
(?) = Ghost Note


     ^                                                         g
     E  E  H.                     E  E  E  Q     Q     E       T E  E  H.                     E  E  E  E  E  E  E  E
D |--4-----4~------------------|--4--------3-----1-----5----|----------4-------------------|--4--------3-----------0----|
A |--3-------------------------|--------3--1----------------|----------3-------------------|--------3--------6----------|
F |-----2----------------------|-----------------3----------|--0h2-------------------------|--------------------6-------|
C |--0-------------------------|-----3----------------------|--0----0----------------------|-----3----------------------|
G |----------------------------|--1-------------------------|------------------------------|--1-----------4-------------|
C |----------------------------|----------------------------|------------------------------|----------------------------|

                                                                                                        g
     E  Q     S H           S      E  E  E  E  E  Q     E       E  E  E  S  H           S      E  E  E  T H           E
  |-----------------------------|-----------------------0----|--------0--10s12----------L---|--------1--3h4~----------L----|
  |-----------1s3~----------L---|--------9--8-(x)-6----------|------------------------------|------------------------------|
  |-----2-----------------------|--------8-------------------|-----2------------------------|-----3------------------------|
  |--0--------------------------|-----7----------------------|--0---------------------------|--1---------------------------|
  |-----------------------------|--6-------------------------|------------------------------|------------------------------|
  |-----------------------------|----------------------------|------------------------------|------------------------------|

   P.H. -->                       g                                                           g
     Q.       Q     Q     E       T E  E  Q     E  E  E  E       E  E  E  Q     Q     E       T E  E  Q     E  E  E  E
  |-<4>------<3>---<1>---------|----------4-----------0--1----|-----------3-----1-----5----|----------4-----------1--1----|
  |----------------------<3>---|----------3-----3--3----------|-----3--3--1----------------|----------3-----3--3----------|
  |----------------------------|--0h2-------------------------|-----------------3----------|--0h2-------------------------|
  |----------------------------|-------0----------------------|-----3----------------------|-------0----------------------|
  |----------------------------|--0---------------------------|--1-------------------------|--0---------------------------|
  |----------------------------|--0---------------------------|----------------------------|--0---------------------------|

                                                                                
     E  E  E  E  E  E  E  E       E  Q     S S E  Q.             E  E  E  Q     Q     E       E  E  E  S  Q..       E
  |-----------3-----------0----|------------------------------|-----------------------0----|--------0--10s12---------------|
  |--3-----1--3-----6----------|-----------1s3-3s-6-----------|--9-----9--8-----6----------|-------------------------------|
  |--------------------6-------|-----2------------------------|--------8-------------------|-----2-------------------------|
  |-----3----------------------|--0---------------------------|-----7----------------------|-------------------------------|
  |--1-----------4-------------|------------------------------|--6-------------------------|-------------------------------|
  |----------------------------|--0---------------------------|----------------------------|--0---------------------0------|
                                                    
              g                     g                                                           g
     E  E  E  T H           E       T E  E  Q.       E  E  E       E  E  E  Q     Q     E       T E  E  Q.       E  Q
  |--------1--3h4~----------L----|----------4--------------1----|--1--------3-----1-----5----|----------4-------------------|
  |------------------------------|----------3--------3--3-------|--------3--1----------------|----------3--------3--3-------|
  |-----3------------------------|--0h2-------------------------|-----------------3----------|--0h2-------------------------|
  |------------------------------|-------0----------------------|-----3----------------------|-------0----------------------|
  |------------------------------|--0---------------------------|--1-------------------------|--0---------------------------|
  |--1---------------------------|--0---------------------------|----------------------------|--0---------------------------|


     E  E  E  E  E  E  E  E       E  Q     S E.  S S Q          E  E  E  Q     Q     E       E  E  E  S E.  E.  E.
  |--4-----4--3-----------0----|-----------1h0---------------|--------1--3-----1-----0----|-----------1h0-------------|
  |--------3--------6----------|-----------------------------|--------3--1----------------|--------3------------------|
  |--------------------6-------|-----2-----------------------|-----------------3-----2----|-----2---------------------|
  |-----3----------------------|-----------------3-3s2-------|-----3----------------------|-----------------3---3-----|
  |--1-----------4-------------|-----------------------------|--1-------------------------|---------------------------|
  |----------------------------|--0--------------------------|----------------------------|--0------------------------|

              g             g       2/4              4/4
     E  E  E  T Q     Q     T E       E  E  E  E       E  E  E  E  E  E  E  E       E  E  E  E  E  E  E  E
  |--------1--3h4~----3------------|----------------|-----------------0-----0----|----------------------------|
  |-------------------------1h3----|--L-------------|--3-----------3-------------|-----3----------------------|
  |-----3--------------------------|----------------|--2-------------------------|----------(0)(0)-0--0--0----|
  |--1-----------------------------|----------------|--0-------------------------|-----------1--1--1--1--1----|
  |--------------------------------|-----1--1--1----|-----0--0--0--0--0--0--0----|--1--1--1--1--1--1--1--1----|
  |--1-----------------------------|-----1--1--1----|--0--0--0--0--0--0--0--0----|--1--1--1--1--1--1--1--1----|
                                         .  .  .
                                                                                
     E  E  E  E  E  E  E  E       E  E  E  E  E  E  E  E       E  E  E  E  E  E  E  E       E  E  E  E  E  E  E  E
  |--0-----------3-------------|----------(3)(3)-3--3--3----|--5-------------------------|----------------------------|
  |--3-----------3-------------|--3-------(3)(3)-3--3--3----|--5-----------------5--6----|-----3----------------------|
  |--2-----------0-------------|--3-------------------------|--7-----7--7--7--7----------|----------(0)(0)-0--0--0----|
  |--2-------------------------|----------------------------|--7-------------------------|-----------1--1--1--1--1----|
  |-----0--0--0-----0--0--0----|--1--1--1--1--1--1--1--1----|-----0--0--0--0--0--0--0----|--1--1--1--1--1--1--1--1----|
  |--0--0--0--0--0--0--0--0----|--1--1--1--1--1--1--1--1----|--0--0--0--0--0--0--0--0----|--1--1--1--1--1--1--1--1----|

                                                          
     E  E  E  E  E  E  E  E       E  E  E  E  E  E  E  E       E  E  E  E  E  E  E  E       E  E  E  E  E  E  E  E  
  |--5-------------------------|----------------------------|--5-------------------------|----------(3)(3)-3--3--3----|
  |--5-----------5-------------|--3-------------------------|--5-----------8-------------|--3-------(3)(3)-3--3--3----|
  |--7-----------7-------------|--3-------(3)(3)-3--3--3----|--7-----------7-------------|--3-------------------------|
  |----------------------------|--1--------1--1--1--1--1----|----------------------------|--1-------------------------|
  |-----0--0--0--0--0--0--0----|-----1--1--1--1--1--1--1----|-----0--0--0--0--0--0--0----|-----1--1--1--1--1--1--1----|
  |--0--0--0--0--0--0--0--0----|--1--1--1--1--1--1--1--1----|--0--0--0--0--0--0--0--0----|--1--1--1--1--1--1--1--1----|

                                  ^                                                          ^
     E  E  E  E  E  E  E  E       E  E  E  E  E  E  S S E                                    E  E  Q     E  E  E  E
  |--5-----------8-------------|--3--------------------------|----------------------------|--4-----4~----------0--1----|
  |--5-----------8-------------|--3--------------------------|----------------------------|--3-----------3--3----------|
  |--7-----------7-------------|--3--------------------------|----------------------------|-----2----------------------|
  |----------------------------|--1--------------------------|----------------------------|--0-------------------------|
  |-----0--0--0-----0--0--0----|--1--1--1--1--1--1--1-1-x----|----------------------------|----------------------------|
  |--0--0--0--0--0--0--0--0----|--1--1--1--1--1--1--1-1-x----|----------------------------|----------------------------|

                                  g                        
     E  E  E  Q     Q     E       T E  E  Q     E  E  E  E       E  E  E  E  E  E  E  E       E  Q     S S E  Q     E   
  |-----------3-----1-----5----|----------4-----------1--1----|-----------3-----------0----|-----------------------------|
  |-----3--3--1----------------|----------3-----3--3----------|-----3--3--------6----------|-----------1s3-3s-6----------|
  |-----------------3----------|--0h2-------------------------|--------------------6-------|-----2------------------7----|
  |-----3----------------------|--0----0----------------------|-----3-----------6----------|--0--------------------------|
  |--1-------------------------|------------------------------|--1-----------4-------------|-----------------------------|
  |----------------------------|------------------------------|----------------------------|-----------------------------|

                                                                          g                     g
     E  E  E  Q     E  E  E       E  E  E  S  H           S      E  E  E  T Q     Q     E       T E  E  E  E  E.  E.  E
  |-----------------------0----|--------0--10s12----------L---|--------1--3h4~----3----------|-------------4------1---0----|
  |--9-----9--8-----6--6-------|------------------------------|-------------------------1----|----------3-----3------------|
  |--------8-------------------|-----2------------------------|-----3------------------------|--0h2------------------------|
  |-----7----------------------|--0---------------------------|--1---------------------------|-------0---------------------|
  |--6-------------------------|------------------------------|------------------------------|--0--------------------------|
  |----------------------------|------------------------------|------------------------------|--0--------------------------|

                                  g 
     E  E  E  Q     E  E  E       T E  E  Q     E.  E.  E       E  E  E  E  E  E  E  E       E  Q     S S E  Q     E
  |-----------3-----1-----5----|----------4---------1---0----|-----------3-----------0----|-----------------------------|
  |--3-----3--3-----1--3-------|----------3-----3------------|--3-----3--3-----6----------|-----------1s3-3s-6----------|
  |-----------------3----------|--0h1------------------------|-----------------6--7-------|-----2------------------7----|
  |-----3----------------------|-------0---------------------|-----3----------------------|--0--------------------(0)---|
  |--1-------------------------|--0--------------------------|--1-----------4-------------|-----------------------------|
  |----------------------------|--0--------------------------|----------------------------|--0--------------------------|

           g
     E  E  T E  Q     E  E  E       E  E  E  S  Q..       E         E  E  E  E  Q     Q          E  E  H           E  E
  |-------------------------0----|--------0--10s12---------------|--------1-----------0-------|--1-----4--------------1----|
  |--9-----8s9--8-----6--6-------|-------------------------------|-----------2--3-------------|--------3-----------3-------|
  |--------8---------------------|-----2-------------------------|-----3----------------------|----------------------------|
  |-----7------------------------|--0----------------------------|----------------------------|-----0----------------------|
  |--6---------------------------|-------------------------------|----------------------------|--0-------------------------|
  |------------------------------|--0---------------------0------|--1-------------------------|--0-------------------------|

                                  g
     E  E  E  Q     E  E  E       T E  E  H           E  E       E  E  E  E  E  E  E  E       E  Q     S S S  Q..
  |--1--------3-----1----------|----------4b----------L-------|--4-----4--3-----------0----|-----------1h0----------------|
  |--------3--1----------------|----------3b----------L-------|--------3--------6----------|------------------------------|
  |-----------------3--3--2----|--0h2-------------------------|--------------------6-------|-----2--------(2)(2)----------|
  |-----3----------------------|-------0-----------------3----|-----3-----------6----------|------------------------------|
  |--1-------------------------|--0---------------------------|--1-----------4-------------|--0---------------------------|
  |----------------------------|--0---------------------------|----------------------------|--0---------------------------|

                             
     E  E  E  Q     Q     E       E  E  E  S E.  E.  E.       E  E  E  E  E  E  E  E       E  E  E  E  E  E  E  E
  |--------1--3-----1-----0----|-----------1h0-------------|-----------------3--0-------|-----------------0-----0----|
  |--------3--1----------------|-----3---------------------|-----------2-----------2----|--3-----------3-------------|
  |-----------------3-----2----|--------2------------------|--------3-----3-------------|--2-------------------------|
  |-----3----------------------|-----------------3---3-----|--1--1----------------------|--0-------------------------|
  |--1-------------------------|---------------------------|----------------------------|-----0--0--0--0--0--0--0----|
  |----------------------------|--0------------------------|--1-------------------------|--0--0--0--0--0--0--0--0----|

                             
     E  E  E  E  E  E  E  E       E  E  E  E  E  E  E  E       E  E  E  E  E  E  E  E       E  E  E  E  E  E  E  E
  |----------------------------|--0-----------3-------------|----------(3)(3)-3--3--3----|--5-------------------------|
  |-----3----------------------|--3-----------3-------------|--3-------(3)(3)-3--3--3----|--5-----------------5--6----|
  |----------(0)(0)-0--0--0----|--2-----------0-------------|--3-------------------------|--7-----7--7--7--7----------|
  |-----------1--1--1--1--1----|--2-------------------------|----------------------------|--7-------------------------|
  |--1--1--1--1--1--1--1--1----|-----0--0--0-----0--0--0----|--1--1--1--1--1--1--1--1----|-----0--0--0--0--0--0--0----|
  |--1--1--1--1--1--1--1--1----|--0--0--0--0--0--0--0--0----|--1--1--1--1--1--1--1--1----|--0--0--0--0--0--0--0--0----|

                                                          
     E  E  E  E  E  E  E  E       E  E  E  E  E  E  E  E       E  E  E  E  E  E  E  E       E  E  E  E  E  E  E  E
  |----------------------------|--5-------------------------|----------------------------|--5-------------------------|
  |-----3----------------------|--5-----------5-------------|--3-------------------------|--5-----------8-------------|
  |----------(0)(0)-0--0--0----|--7-----------7-------------|--3-------(3)(3)-3--3--3----|--7-----------7-------------|
  |-----------1--1--1--1--1----|----------------------------|--1--------1--1--1--1--1----|----------------------------|
  |--1--1--1--1--1--1--1--1----|-----0--0--0--0--0--0--0----|-----1--1--1--1--1--1--1----|-----0--0--0--0--0--0--0----|
  |--1--1--1--1--1--1--1--1----|--0--0--0--0--0--0--0--0----|--1--1--1--1--1--1--1--1----|--0--0--0--0--0--0--0--0----|

                                                               ^
     E  E  E  E  E  E  E  E       E  E  E  E  E  E  E  E       E  E  E  E  E  E  S S E
  |----------(3)(3)-3--3--3----|--5-----------8-------------|--3--------------------------|----------------------------|
  |--3-------(3)(3)-3--3--3----|--5-----------8-------------|--3--------------------------|----------------------------|
  |--3-------------------------|--7-----------7-------------|--3--------------------------|----------------------------|
  |--1-------------------------|----------------------------|--1--------------------------|----------------------------|
  |-----1--1--1--1--1--1--1----|-----0--0--0-----0--0--0----|--1--1--1--1--1--1--1-1-x----|----------------------------|
  |--1--1--1--1--1--1--1--1----|--0--0--0--0--0--0--0--0----|--1--1--1--1--1--1--1-1-x----|----------------------------|

                                  ^                                                         g
                                  E  E  Q     E  E  E  E       E  E  E  Q     Q     E       T E  E  Q     E  E  E  E
  |----------------------------|--4-----4~----------0--1----|-----------3-----1-----5----|----------4-----------1--1----|
  |----------------------------|--3-----------3--3----------|-----3--3--1----------------|----------3-----3--3----------|
  |----------------------------|-----2----------------------|-----------------3----------|--0h2-------------------------|
  |----------------------------|--0-------------------------|-----3----------------------|--0----0----------------------|
  |----------------------------|----------------------------|--1-------------------------|------------------------------|
  |----------------------------|----------------------------|----------------------------|------------------------------|

                                                                      g
     E  E  E  E  E  E  E  E       E  E  E  S S E  Q     E       E  E  T E  Q     Q     E       E  E  E  S  H           S
  |-----------3-----------0----|-----------------------------|-------------------------0----|--------0--10s12----------L---|
  |--3-----3--3-----6----------|--------3--1s3-3s-6----------|--9-----8s9--8-----6----------|------------------------------|
  |--------------------6-------|-----2------------------7----|--------8---------------------|-----2------------------------|
  |-----3----------------------|--0--------------------------|-----7------------------------|--0---------------------------|
  |--1-----------4-------------|-----------------------------|--6---------------------------|------------------------------|
  |----------------------------|-----------------------------|------------------------------|------------------------------|

              g
     E  E  E  T Q     Q.            W                            W
  |--------1--3h4~----3----------|--L-------------------------|--L-------------------------||
  |------------------------------|----------------------------|----------------------------||
  |-----3------------------------|--L-------------------------|--L-------------------------||
  |--1---------------------------|--L-------------------------|--L-------------------------||
  |------------------------------|----------------------------|----------------------------||
  |------------------------------|----------------------------|----------------------------||


This chord can also be played like this:

  |----------------------------|
  |--------9--8-(x)-6----------|
  |--------8--------------9----|
  |-----7----------------------|
  |--6-------------------------|
  |----------------------------|
Login or Register to remove this ad.