Ads

Into the Unknown (Everlasting Summer) Guitar Tab

Submitted: Jul 28, 2019 by olenellus (Last updated: Jul 30, 2019)

0
Download | Listen
Game: Everlasting Summer
Composer(s): Sergey Eybog
Style: Arrangement, Fingerstyle, Natural harmonics, Percussion

AutoScroll: Slow | Medium | Fast
Title: Into the Unknown
Game: Everlasting summer [Бесконечное лето]
Composed by: M. Malkov (Between August and December) [М. Мальков]
Arranged and tabulated by: A. Zadorin [А. Задорин]
2019

The original track: https://www.youtube.com/watch?v=2s94gfZi4j0

(The attached ZIP-file contains this tablature, a sheet music, and the GNU LilyPond
source file for the sheet music.)

Pay special attention to the melody. It is strongly syncopated.

********************************************************************************************

[Introduction]

Andante (Q = 90 bpm)

4/4 S E.    E   S S E   S E   S E       S E.    E   S S Q       T T T T E
e|-----------------------------------|------------------------------------------||
B|--o-o-----X---o-o-----X-o---X-o----|--o-o-----X---o-o---------*-*-*---*-------||
G|-----------------------------------|------------------------------------------||
D|-----------------------------------|------------------------------------------||
A|-----------------------------------|------------------------------------------||
E|-----------------------------------|------------------------------------------||


[Verse]

3
    E E E E E E E E     E E E E E E E E     E E E E E E E E     E E E E E E E E
e|------------0------|--------0----------|------------0------|--------0----------|
B|----0---3----------|------0-----3-0----|----0---3----------|------0-----3-0----|
G|-------------------|-------------------|-------------------|-------------------|
D|--2---2------------|----2--------------|--0---0------------|----0--------------|
A|-------------------|-------------------|-------------------|-------------------|
E|--0-0-0-0-0-0-0-0--|--0-0-0-0-0-0-0-0--|--0-0-0-0-0-0-0-0--|--0-0-0-0-0-0-0-0--|
    p
    
7   
    E E E E E E E E     E E E E E E E E     E E E E E E E E     E E E E E E E E
e|-------------------|-------------------|--0----------------|-------------------|
B|--------1-----0----|--------1-----0----|--0--(+)-----(+)---|-----(+)-----(+)---|
G|----0--------------|--2----------------|--0----------------|-------------------|
D|-------------------|-------------------|-------------------|-------------------|
A|--3-3-3-3-3-3-3-3--|--0-0-3-0-0-0-0-0--|-------------------|-------------------|
E|-------------------|-------------------|--0-0-0-0-0-0-0-0--|--0-0-0-0-0-0-0-0--|

11
    E E E E E E E E     E E E E E E E E     E  E  E  E  E  E  E  S S     E E E E E E E E
e|-------------------|-------------------|----------------------------|-------------------|
B|--------------0-3--|--------1-------0--|----------------------------|-------------------|
G|-/9~~~~~~~~~~------|----2-------0------|-----2--0-------------------|--0-----0----------|
D|-------------------|-------------------|-----------2-----------2h4--|----4-2-----4-2----|
A|-------------------|-------------------|----------------------------|-------------------|
E|--0-0-0-0-0-0-0-0--|--0-0-0-0-0-0-0-0--|--0--0--0--0--0--0--0--0----|--0-0-0-0-0-0-0-0--|

15
    E   E   E   S S E   E   E   E      E   E   E   E   E   E   E   E
e|----------------------------------|----------------------------------|
B|----------------------------------|--0-------------------------------|
G|-/2-------------------0-----------|----------2---0-------------------|
D|--------------5p4-4---------------|----------------------4-----------|
A|--3---3---3---3---3---3---3---3---|--0---0---0---0---0---0---0---0---|
E|----------------------------------|----------------------------------|

17                                                             ^ v ^ v
    S S S S E   E   E   E   E   E      E   E   E   E   E   E   S S S S
e|----------------------------------|----------------------------------||
B|----------------------------------|----------------------------------||
G|----------------------------------|----------------------------------||
D|--5p4p2p0-2---------------2/------|-14~~~~~~~~~~~~~~~~~~~~---x-x-x-x-||
A|----------------------------------|--------------------------x-x-x-x-||
E|--0---0---0---0---0---0---0---0---|--0---0---0---0---0---0---x-x-x-x-||
                                                               ff

[Chorus]

19  ^ ^ ^ ^ ^ ^ ^ ^   ^ ^ ^ ^ ^ ^ ^   ^ ^ ^ ^ ^ ^ ^ ^   ^ ^ ^ ^ ^ ^ ^ ^
    E E E E E E E E   E E E E E E E   E E E E E E E E   E E E E E E E E
e|------------------|---------------|-----------------|-0-0-0-0-3-3-3-3-|
B|------------------|---------------|-0-0-0-0-3-3-3-3-|-0-0-0-0-0-0-0-0-|
G|------------------|-0-0-0-0-2-2-2-|-0-0-0-0-0-0-0-0-|-0-0-0-0-0-0-0-0-|
D|--2-2-2-2-4-4-4-4-|-2-2-2-2-2-2-2-|-2-2-2-2-2-2-2-2-|-2-2-2-2-2-2-2-2-|
A|--2-2-2-2-2-2-2-2-|-2-2-2-2-2-2-2-|-2-2-2-2-2-2-2-2-|-2-2-2-2-2-2-2-2-|
E|--0-0-0-0-0-0-0-0-|-0-0-0-0-0-0-0-|-0-0-0-0-0-0-0-0-|-0-0-0-0-0-0-0-0-|
    cresc._____________________________________________________________

23  ^   ^   ^   ^   ^   ^   ^   ^     ^ ^ ^ ^ ^ ^ ^ ^   ^ ^ ^ ^ ^ ^ ^ ^   ^ ^ ^ ^ ^ ^ ^ ^
    E   E   E   S S E   E   E   E     E E E E E E E E   E E E E E E E E   E E E E E E E E
e|--2---2---2---3p2-0---0---0---0---|-----------------|-----------------|-----------------|
B|--1---1---1---1---1---1---1---1---|-1-1-1-1-0-0-0-0-|-----------------|-----------------|
G|--0---0---0---0---0---0---0---0---|-2-2-2-2-2-2-2-2-|-2-2-2-2-0-0-0-0-|-----------------|
D|--2---2---2---2---2---2---2---2---|-2-2-2-2-2-2-2-2-|-2-2-2-2-2-2-2-2-|-2-2-2-2-2-2-2-2-|
A|--3---3---3-------3---3---3---3---|-0-0-0-0-0-0-0-0-|-2-2-2-2-2-2-2-2-|-2-2-2-2-2-2-2-2-|
E|----------------------------------|-----------------|-0-0-0-0-0-0-0-0-|-0-0-0-0-0-0-0-0-|
    fff             dim.______________________________________________    ff      f

27  >               >       >
    ^   ^   ^   ^   ^   ^   ^ v       ^ ^ ^ ^ ^ ^ ^    ^ ^ ^ ^ ^ ^ ^ ^   ^ ^ ^ ^ ^ ^ ^ ^
    E   E   E   E   E   E   S E.      E E E E E E E    E E E E E E E E   E E E E E E E E
e|----------------------------------|---------------|------------------|-0-0-0-0-3-3-3-3-|
B|----------------------------------|---------------|----------3-3-3-3-|-0-0-0-0-0-0-0-0-|
G|----------------------------------|-0-0-0-0-2-2-2-|-/4-4-4-4-0-0-0-0-|-0-0-0-0-0-0-0-0-|
D|--2---2---2---2---4---4---4-4-----|-2-2-2-2-2-2-2-|--2-2-2-2-2-2-2-2-|-2-2-2-2-2-2-2-2-|
A|--2---2---2---2---2---2---2-2-----|-2-2-2-2-2-2-2-|--2-2-2-2-2-2-2-2-|-2-2-2-2-2-2-2-2-|
E|--0---0---0---0---0---0---0-0-----|-0-0-0-0-0-0-0-|--0-0-0-0-0-0-0-0-|-0-0-0-0-0-0-0-0-|
    ff cresc.___________________________________________________________________________

31 ^ ^ ^ ^ ^ ^ ^ ^   ^ ^ ^ ^ ^ ^ ^ ^
   E E E E E E E E   E E E E E E E E    S E.    E   S S Q       T T T T T T T T
e|-2-2-2-2-0-0-0-0-|-----------------|------------------------------------------||
B|-1-1-1-1-1-1-1-1-|-1-1-1-1-0-0-0-0-|--o-o-----X---o-o---------*-*-*---*-*-*---||
G|-0-0-0-0-0-0-0-0-|-2-2-2-2-2-2-2-2-|------------------------------------------||
D|-2-2-2-2-2-2-2-2-|-2-2-2-2-2-2-2-2-|------------------------------------------||
A|-3-3-3-3-3-3-3-3-|-0-0-0-0-0-0-0-0-|------------------------------------------||
E|-----------------|-----------------|------------------------------------------||
   fff     dim._____________________

[Verse]

34
    E E E E E E E E     E E E E E E E E     E E E E E E E E     E  E  E  E  E  E  E  E
e|-------------------|-------------------|-------------------|------------------<12>-----|
B|-----(+)-----(+)---|-----(+)-----(+)---|-----(+)-----(+)---|-------(+)-----------------|
G|-------------------|-------------------|-------------------|---------------------------|
D|-------------------|-------------------|-------------------|---------------------------|
A|-------------------|-------------------|-------------------|---------------------------|
E|--0-0-0-0-0-0-0-0--|--0-0-0-0-0-0-0-0--|--0-0-0-0-0-0-0-0--|--0--0--0--0--0--0--0--0---|
    p
    
38  
     E  E  E  E  E  E  E  E       E  E  E  E  E  E  E  E      E E E E E E E E    E E E E E E E E
e|----------------------------|----------------------------|------------------|-<5>--------------|
B|-<12>-----------------------|--------------------<7>-----|-------------<5>--|------------------|
G|----------------------------|-<12>-----------------------|-<5>--------------|------------------|
D|----------------------------|----------------------------|------------------|------------------|
A|----------------------------|---0--0--0--0--0--0--0--0---|------------------|------------------|
E|---8--8--8--8--8--8--8--8---|----------------------------|--0-0-0-0-0-0-0-0-|--0-0-0-0-0-0-0-0-|

42
    E E E E E E E E    E E E E E E E E    E E E E E E E E    E E E E E E E E
e|------------------|------------------|------------------|------------------|
B|------------------|------------------|------------------|------------------|
G|--------------0-2-|----0-------------|------------------|------------------|
D|-/2-2-2-2---4-----|------4-2---4-0---|--2-----2---0-----|--------------0---|
A|------------------|------------------|--------------0-2-|--------0---2-----|
E|--0-0-0-0-0-0-0-0-|--0-0-0-0-0-0-0-0-|--0-0-0-0-0-0-0-0-|--0-0-0-0-0-0-0-0-|

46  >
    E E E E E E E E    E E E E E E E E    E E E E E E E E    E E E E E E E E
e|------------------|------------------|------------------|-<5>--------------|
B|------------------|--------------0---|-------------<5>--|------------------|
G|--------------0---|--------2---------|-<5>--------------|------------------|
D|------------------|--4---------------|------------------|------------------|
A|--3-3-3-3-3-3-3-3-|--0-0-0-0-0-0-0-0-|------------------|------------------|
E|------------------|------------------|--0-0-0-0-0-0-0-0-|--0-0-0-0-0-0-0-0-|

50
    E E E E E E E E    E E E E E E E E    E E E E E E E E    E E E E E E E E
e|------------------|------------------|------------------|------------------|
B|------------------|------------------|------------------|------------------|
G|--------------0-2-|----0-------------|------------------|------------------|
D|-/2-2-2-2---4-----|------4-2---4---0-|--2-----2---0-----|--------------0---|
A|------------------|------------------|--------------0-2-|--------0---2---3-|
E|--0-0-0-0-0-0-0-0-|--0-0-0-0-0-0-0-0-|--0-0-0-0-0-0-0-0-|--0-0-0-0-0-0-0-0-|

54  >                                                                                  ^ V ^ V
    E E E E E E E E     E E E E E E E E     E E E E E E E E    E   E   E   E   E   E   S S S S
e|-------------------|-------------------|------------------|-<5>------------------------------||
B|-------------------|--------------0----|------------------|----------------------------------||
G|--------------0----|--------2----------|-<5>--------2---0-|----------------------------------||
D|-------------------|--4----------------|--------------4---|--------------------------x-x-x-x-||
A|--3-3-3-3-3-3-3-3--|--0-0-0-0-0-0-0-0--|------------------|--------------------------x-x-x-x-||
E|-------------------|-------------------|--0-0-0-0-0-0-0-0-|--0---0---0---0---0---0---x-x-x-x-||
                                                                                       ff

[Chorus]

58 ^ ^ ^ ^ ^ ^ ^ ^   ^ ^ ^ ^ ^ ^ ^ ^   ^ ^ ^ ^ ^ ^ ^ ^   ^ ^ ^ ^ ^ ^ ^ ^
   E E E E E E E E   E E E E E E E E   E E E E E E E E   E E E E E E E E
e|-----------------|-----------------|-3-3-3-3-3-3-3-3-|-----------------|
B|-3-3-3-3-3-3-3-3-|-----------------|-3-3-3-3-3-3-3-3-|-----------------|
G|-2-2-2-2-2-2-2-2-|-----------------|-4-4-4-4-4-4-4-4-|-----------------|
D|-0-0-0-0-0-0-0-0-|-4-4-4-4-4-4-4-4-|-5-5-5-5-5-5-5-5-|-2-2-2-2-2-2-2-2-|
A|-0-0-0-0-0-0-0-0-|-4-4-4-4-4-4-4-4-|-5-5-5-5-5-5-5-5-|-2-2-2-2-2-2-2-2-|
E|-x-x-x-x-x-x-x-x-|-2-2-2-2-2-2-2-2-|-3-3-3-3-3-3-3-3-|-0-0-0-0-0-0-0-0-|

62                                                       >       >   >
   ^ ^ ^ ^ ^ ^ ^ ^   ^ ^ ^ ^ ^ ^ ^ ^   ^ ^ ^ ^ ^ ^ ^ ^   ^ ^ ^ ^ ^   ^
   E E E E E E E E   E E E E E E E E   E E E E E E E E   E E E E Q   Q
e|-----------------|-----------------|-3-3-3-3-3-3-3-3-|-3-3-3-3---------||
B|-3-3-3-3-3-3-3-3-|-----------------|-3-3-3-3-3-3-3-3-|-3-3-3-3---------||
G|-2-2-2-2-2-2-2-2-|-----------------|-4-4-4-4-4-4-4-4-|-4-4-4-4---------||
D|-0-0-0-0-0-0-0-0-|-4-4-4-4-4-4-4-4-|-5-5-5-5-5-5-5-5-|-5-5-5-5-5---4---||
A|-0-0-0-0-0-0-0-0-|-4-4-4-4-4-4-4-4-|-5-5-5-5-5-5-5-5-|-5-5-5-5-5---4---||
E|-x-x-x-x-x-x-x-x-|-2-2-2-2-2-2-2-2-|-3-3-3-3-3-3-3-3-|-3-3-3-3-3---2---||


[Conclusion]

66  >
    ^
    Q       E   S S Q       Q           S E.    E   S S Q      Q
e|-----------------------------------|-----------------------------------|
B|----------X---o-o---------X--------|--o-o-----X---o-o--------X---------|
G|-----------------------------------|-----------------------------------|
D|--2--------------------------------|-(L)-------------------------------|
A|--2--------------------------------|-(L)-------------------------------|
E|--0--------------------------------|-(L)-------------------------------|

68
    S E.    E   S S Q       Q           S E.    E   S S H
e|-----------------------------------|-----------------------------------||
B|--o-o-----X---o-o---------X--------|--o-o-----X---o-o------------------||
G|-----------------------------------|-----------------------------------||
D|-(L)-------------------------------|-(L)-------------------------------||
A|-(L)-------------------------------|-(L)-------------------------------||
E|-(L)-------------------------------|-(L)-------------------------------||

********************************************************************************************

Notation

Above the staff:
n          - measure number n
x/y        - time signature
H          - half note
Q          - quarter note
E          - eighth note
S          - 16th note
T          - 32nd note
N.         - dotted note
>          - accent
^          - downstroke (from string 6 to string 1) with the 'phantom pick' (i and p fingers put together)
v          - upstroke (from string 1 to string 6) with the 'phantom pick'

On the staff:
h          - hammer-on (upward legato)
p          - pull-off (downward legato)
/          - upward glissando (slide-up)
< N>       - natural harmonic at fret N
~          - vibrato
x          - dead note
(L)        - tied note (the energy for the sustain is provided by the vibration due to percussion)
The vertical position of the following percussion markers on the staff bears no information:
X          - percussion: hit the soundboard above the strings with p to make a bright sound (snare imitation)
o          - percussion: hit the golpeador with the soft part of i to make a dull sound (bass drum imitation)
*          - percussion: hit the golpeador with the sucsession a-m-i (imitation of a tom tom roll)
(+)        - percussion: hit the guitar body with the left hand to make a bright sound (snare imitation)

Below the staff:
p,f,ff,fff - dynamics (volume)
cresc.     - crescendo (progressively increase the volume)
dim.       - diminuendo (progressively decrease the volume)
Login or Register to remove this ad.

1 comment on Into the Unknown

Correction

Note, in measures 20 and 28 each chord should be played 4 times (now the second chord is played only 3 times). One eighth in these measures was lost durin the file editing. The PDF sheet music and the MIDI file are correct at these points.