Ads

Everlasting Summer (Everlasting Summer) Guitar Tab

Submitted: Jul 25, 2019 by olenellus (Last updated: Jul 30, 2019)

3
Average: 3 (1 vote)
Download | Listen
Game: Everlasting Summer
Composer(s): Sergey Eybog
Style: Arrangement, Artificial harmonics, Natural harmonics, Percussion

AutoScroll: Slow | Medium | Fast
Title: Everlasting summer
Game: Everlasting summer [Бесконечное лето]
Composed by: S. Eybog [С. Ейбог]
Arranged and tabulated by: A. Zadorin [А. Задорин]
2019

The original track: https://www.youtube.com/watch?v=Xc5o7DyI0-4

(The attached ZIP-file contains this tablature, a sheet music, and the GNU LilyPond
source file for the sheet music.)

********************************************************************************************

[Introduction]

4/4 E     E     E     E     H             W     E     E     E     E     H             H.   Q
e|-------------------------------------|-----|-------------------------------------|----------|
B|--------------------3<15>-L----------|-----|--------------------3<15>-L----------|----------|
G|--------------4<16>-------L----------|-----|--------------4<16>-------L----------|----------|
D|--------5<17>-------------L----------|-----|--------4<16>-------------L----------|----------|
A|-------------------------------------|-----|--2<14>-------------------L----------|----------|
D|--5<17>-------------------L----------|-----|-------------------------------------|-------9\-|
    p

5                                         CpIII
    E     E     E     E     H             H           H             W            W
e|-------------------------------------|--3<15>------------------|--2<14>-----|--L--||
B|--------------------3<15>-L----------|--------------3<15>------|--3<15>-----|--L--||
G|--------------4<16>-------L----------|-------------------------|--4<16>-----|--L--||
D|--------5<17>-------------L----------|-------------------------|--4<16>-----|--L--||
A|-------------------------------------|-------------------------|--2---------|--L--||
D|--5-----------------------L----------|--------------L----------|------------|-----||
             
             
[Verse]

9
    H       E E E E     E E E E H           H       E E E E     E E E E H
e|--------------0----|--0h2--------------|------------5p2-0--|--0h2--------------|
B|------------0---3--|------0-3-L--------|-------------------|------0-3-L--------|
G|-------------------|--------4-L--------|-------------------|--------4-L--------|
D|-------------------|-------------------|-------------------|-------------------|
A|-------------------|-------------------|-------------------|--2-------L--------|
D|-------------------|--5-------L--------|--5----------------|-------------------|
             mf                  (change 4th to 3rd finger here)

13
    H       E E E E     E E E E H           H       E E E E     Q.    E H
e|--------------0----|--0h2--------------|------------0------|-------------------|
B|------------0---3--|------0-3-L--------|--------------3-2--|--------3-L--------|
G|-------------------|--------4-L--------|-------------------|--------4-L--------|
D|-------------------|-------------------|-------------------|--4----------------|
A|--2----------------|-------------------|-------------------|--2-------L--------|
D|-------------------|--5-------L--------|--5----------------|-------------------|

17
    H       E E E E     E E E E H           Q.    E E E E E     E E E E H
e|--------------0----|--0h2--------------|--------0-L-5p2-0--|--0h2--------------|
B|------------0---3--|------0-3-L--------|--------0-L--------|------0-3-L--------|
G|-------------------|--------4-L--------|-------------------|--------4-L--------|
D|-------------------|-------------------|-------------------|-------------------|
A|--2----------------|-------------------|--0----------------|--2-------L--------|
D|-------------------|--5-------L--------|-------------------|-------------------|

21
    Q.    E E E E E     E E E E H           Q.    E E E E E     Q.    Q.    Q       H  H
e|--------------0----|--0h2--------------|--------0-L-0---2--|-------------------|--------|
B|--------2-L-0---3--|------0-3-L--------|--------0-L---3----|--0-----3-----0----|--0-----|
G|--------4-L--------|--------4-L--------|-------------------|--------4----------|--------|
D|-------------------|-------------------|-------------------|-------------------|--------|
A|-------------------|-------------------|--0----------------|--2----------------|--2-----|
D|--4----------------|--5-------L--------|-------------------|-------------------|--------|


[Chorus]

26
6/8 Q   E E E E     Q   E E Q   2/4 Q   Q   6/8 Q   E E E E     Q   E E Q   2/4 Q   Q
e|---------------|---------------|-----------|---------------|---------------|--2--------|
B|--0-----3------|--0-----3------|--0--------|--0-----3------|--0-----3------|------3----|
G|------0-0------|------0-0------|------2----|------0-0------|------0-0------|--2--------|
D|---------------|---------------|-----------|---------------|---------------|-----------|
A|----------X----|----------X----|-----------|----------X----|----------X----|-----------|
D|--2-----2---L/-|--5-----5------|--0---0----|--2-----2---L/-|--5-----5------|--0---0----|
    f
  (fret with the 2nd finger)

32                                              CII-----------------|
6/8 Q   E E E E     Q   E E Q   2/4 Q   Q   6/8 Q.    E Q       Q.    E Q   2/4 Q   Q
e|---------------|---------------|-----------|--2------------|--2-----3------|--5---2----|
B|--0-----3------|--0-----3------|--0--------|--------3------|---------------|-----------|
G|------0-0------|------0-0------|------2----|---------------|---------------|-----------|
D|---------------|---------------|-----------|---------------|---------------|--0---0----|
A|----------X----|----------X----|-----------|--2-----2------|--3-----3------|-----------|
D|--2-----2---L/-|--5-----5------|--0---0----|----------X----|----------X----|-----------|

38
6/8 E E E E E E     E E E E Q   2/4 E E E E 6/8 E E E E E E     E E E E E E 2/4 E E E E
e|---------------|---------------|-----------|---------------|---------------|--2--------|
B|--0-----3------|--0-----3------|--0--------|--0-----3------|--0-----3------|------3----|
G|------0-0------|------0-0------|------2----|------0-0------|------0-0------|--2--------|
D|---------------|---------------|-----------|---------------|---------------|-----------|
A|----------X----|----------X----|-----------|----------X----|----------X----|-----------|
D|--2-2-2-2---L/-|--5-5-5-5------|--0-0-0-0--|--2-2-2-2---L/-|--5-5-5-5------|--0-0-0-0--|

44                                              CII-----------------|
6/8 E E E E E E     E E E E Q   2/4 E E E E 6/8 E E E E E E     E E E E E E 2/4 E E E E
e|---------------|---------------|-----------|--2------------|--2-----3------|--5-3-2----|
B|--0-----3------|--0-----3------|--0--------|--------3------|---------------|--------3--|
G|------0-0------|------0-0------|------2----|---------------|---------------|-----------|
D|---------------|---------------|-----------|---------------|---------------|--0-0-0-0--|
A|----------X----|----------X----|-----------|--2-2-2-2-2-2--|--3-3-3-3-3-3--|-----------|
D|--2-2-2-2---L/-|--5-5-5-5------|--0-0-0-0--|---------------|---------------|-----------|


[Verse]

50
4/4 E E E E E E E E     E E E E E E E E     E E E E E E E E
e|--0h2--------------|------------5p2-0--|--0h2--------------|
B|------0-3---3p0----|----3p0------------|------0-3---3p0----|
G|--------4-------0--|--------0----------|--------4----------|
D|-------------------|-------------------|----------------4--|
A|----------X--------|----------X--------|--2----------------|
D|--5----------------|--L----------------|----------X--------|

53
    E E E E E E E E     E E E E E E E E     E E E E E E E E     Q.    E E  E E E
e|--------------0----|--0h2--------------|------------0------|-----------0g2-0----|
B|----3p0-----0---3--|------0-3---3p0----|----3p0-------3-2--|--------3--------3--|
G|-------------------|--------4-------0--|--------0----------|--------4-----------|
D|--------4----------|-------------------|-------------------|--4-----------------|
A|--L----------------|----------X--------|----------X--------|--2-----------------|
D|----------X--------|--5----------------|--L----------------|----------X---------|

57
    E E E E E E E E     E E E E Q   Q       Q.    E E E E E     E E E E Q   Q
e|--------------0----|--0h2--------------|--------0---5p2-0--|--0h2--------------|
B|--0---------0---3--|------0-3----------|--------0----------|------0-3----------|
G|-------------------|--------4----------|-------------------|--------4----------|
D|-------------------|-------------------|-------------------|-------------------|
A|--2-0--------------|----------X--------|--0----------------|--2-----------2----|
D|------4-2-0--------|--5-----------5----|----------X--------|----------X--------|

61
    Q.    E E E E E     E E E E Q   Q       Q.    E E E E E     Q.    E Q   Q       H  H
e|--------------0----|--0h2--------------|--------0---0---2--|-------------------|--------||
B|--------2---0---3--|------0-3----------|--------0-----3----|--0-----3-----0----|--0-----||
G|--------4----------|--------4----------|-------------------|--------4----------|--------||
D|-------------------|-------------------|-------------------|-------------------|--------||
A|----------X--------|----------X--------|--0----------------|--2----------------|--2-----||
D|--4----------------|--5-----------5----|----------X--------|----------X--------|--------||


[Bridge]

66
6/8 Q.    Q.        Q.    Q.    2/4 Q    Q    6/8 Q.    Q.        Q.    Q.    2/4 H
e|---------------|---------------|-------------|---------------|--0<12>-2<14>--|---------|
B|--2<14>-3<15>--|--------0<12>--|-------------|--2<14>-3<15>--|---------------|--2<14>--|
G|---------------|--2<14>--------|-------------|---------------|---------------|---------|
D|---------------|---------------|-4<16>-0<12>-|---------------|---------------|---------|
A|--2------------|--L------------|--L----------|--1------------|--L------------|--L------|
D|---------------|---------------|-------------|---------------|---------------|---------|
    p
    
72  
6/8 Q.    Q.        Q.    Q.    2/4 Q    Q    4/4 W                    W
e|---------------|--0<12>-2<14>--|-5<17>-2<14>-|--0<12>-------------|--3<15>~~~~~~~~~~---|
B|--2<14>-3<15>--|---------------|-------------|--------------------|--------------------|
G|---------------|---------------|-------------|--------------------|--------------------|
D|---------------|---------------|-------------|--------------------|--------------------|
A|--2------------|--L------------|--L----------|--3-----------------|--L-----------------|
D|---------------|---------------|-------------|--------------------|--------------------|

77  CIX----------------------------------------------------------------------------------|
    E  E  E  E  E  E  E  E     E  E  E  E  E  E  E  E     E  E  E  E  E  E  E  E     W
e|--------------------------|--------------------------|--------------------------|---------||
B|-12p10-------12p10--------|-12p10-------12p10--------|-12p10-------12p10--------|---------||
G|--9----11p-9-------11p-9--|-------11p-9-------11p-9--|-------11p-9-------11p-9--|---------||
D|--9-----------------------|--L-----------------------|--9-----------------------|--9------||
A|--------------------------|--------------------------|--------------------------|---------||
D|--------------------------|--------------------------|--9-----------------------|--L------||


[Chorus]

81
6/8 Q       E   Q.              Q       E   Q.          2/4 Q       Q
e|---------------------------|---------------------------|-------------------|
B|-<12>----------------------|-<12>----------------------|-<12>--------------|
G|--------<12>-<7>-----------|-<12>---<12>-<7>-----------|-------------------|
D|---------------------------|---------------------------|---------<7>-------|
A|-<7>-----------------------|---------------------------|-------------------|
D|---------------------------|---------------------------|-<12>--------------|

84
6/8 Q       E   Q.              Q       E   Q.          2/4 Q       Q
e|---------------------------|---------------------------|-------------------|
B|-<12>----------------------|-<12>----------------------|-<7>---------------|
G|--------<12>-<7>-----------|-<12>---<12>-<7>-----------|---------<7>-------|
D|---------------------------|---------------------------|-------------------|
A|-<7>-----------------------|---------------------------|-------------------|
D|---------------------------|---------------------------|-<5>---------------|

87
6/8 Q       E   Q.              Q       E   Q.          2/4 Q       Q
e|---------------------------|---------------------------|-------------------|
B|-<12>----------------------|-<12>----------------------|-<12>--------------|
G|--------<12>-<7>-----------|-<12>---<12>-<7>-----------|-------------------|
D|---------------------------|---------------------------|---------<7>-------|
A|-<7>-----------------------|---------------------------|-------------------|
D|---------------------------|---------------------------|-<12>--------------|

90
6/8 Q.          Q.              Q.          Q.          2/4 Q       Q
e|---------------------------|---------------------------|-------------------|
B|-<12>----------------------|-<7>-----------------------|-------------------|
G|-------------<7>-----------|-------------<5>-----------|-------------------|
D|-<9>-----------------------|---------------------------|-<3>---------------|
A|---------------------------|---------------------------|-------------------|
D|---------------------------|---------------------------|----------9\-------|
                                                                   sfz
                                                               (fret with the 2nd finger)

93  >     >         >                   >       >
6/8 E E E E E E     E E E E E E 2/4 E E E E 6/8 E E E E E E     E E E E E E 2/4 E E E E
e|--------2------|--0------------|-----------|---------------|---------------|----0------|
B|--0-----3------|--0-----3------|--0---3----|--0-----3------|--0-----3------|--3---3----|
G|------0--------|------0-0------|------2----|------0-0------|------0-0------|--------2--|
D|---------------|---------------|-----------|---------------|---------------|-----------|
A|---------------|---------------|-----------|---------------|---------------|-----------|
D|--2-2-2-2-2-2/-|--5-5-5-5-5-5--|--0-0-0-0--|--2-2-2-2-2-2/-|--5-5-5-5-5-5--|--0-0-0-0--|
    f
    
99  >     >         >                   >
6/8 E E E E E E     E E E E E E 2/4 E E E E 6/8 E E E E E E     E E E E E E 2/4 E E E E
e|--------2------|--0------------|-----------|--2------------|--2-----3------|--5-3-2----|
B|--0-----3------|--0-----3------|--0---3----|--------3------|---------------|--------3--|
G|------0--------|------0-0------|------2----|---------------|---------------|-----------|
D|---------------|---------------|-----------|---------------|---------------|--0--------|
A|---------------|---------------|-----------|--2-2-2-2-2-2--|--3-3-3-3-3-3--|-----------|
D|--2-2-2-2-2-2/-|--5-5-5-5-5-5--|--0-0-0-0--|---------------|---------------|-----------|

105 CII
4/4 W           W
e|-----------|-----------||
B|--5~~~~~~--|--L~~~~~~--||
G|-----------|-----------||
D|--2--------|--L--------||
A|-----------|-----------||
D|--2--------|--L--------||

********************************************************************************************

Notation

Above the staff:
n          - measure number n
x/y        - time signature
W          - whole note
Q          - quarter note
E          - eighth note
N.         - dotted note
CN         - bar at fret N
>          - accent

On the staff:
h          - hammer-on (upward legato)
p          - pull-off (downward legato)
/          - upward glissando (slide-up)
\          - downward glissando (slide-down)
g          - grace note (with legato)
L          - tied note (when it is not obvious)
< N>        - natural harmonic at fret N
N< M>       - artificial harmonic fretted at fret N with vibration stopped at fret M
0< N>       - natural harmonic at fret N played with the artificial harmonics technique
~          - vibrato
X          - percussive sound: hit either a string or the soundboard above the strings with
             the thumb to make a bright sound. If a string is hit, try not to mute the
             preceding bass

Below the staff:
p,mf,f     - dynamics (volume)
sfz        - sforzando (play loudly with a strong attack)
Login or Register to remove this ad.

2 comments on Everlasting Summer

Does anyone else laugh when

3

Does anyone else laugh when the tabber tells you what fingers to use and when?

I'm always like, ”uh.. I'm gonna use whatever the f fingers I want."

Idk. It just seems obvious to me to play however feels most natural. Especially when they start telling me to use my thumb, and I just think, "dude, I can play it perfectly fine without using my thumb like a weirdo O.O I dont have giant monster hands like Hendrix.

The finger notation is just a

The finger notation is just a suggestion, not a hard prescription. But they mark parts found to be non-obvious by the author. (The author, of course, can be wrong, too, e.g. not exploring enough all the possibilities.) Continuing the same line of thought one can conclude that the tabulated form of musical notation is already restrictive in the very same way, as it suggests a particular fretting pattern out of many other possible ones.

However, if you are interested by the 'song' itself and not merely by an abstract discussion on guitar notation, I suggest you to try the other version of it (the one with the standard tuning).