Ads

Tsubasa wo Kudasai (Evangelion: 2.0) Guitar Tab

Submitted: Feb 22, 2017 by GomiNoUmi

4.833335
Average: 4.8 (6 votes)
Download | Listen
Game: Evangelion: 2.0
Composer(s): Megumi Hayashibara
Style: Arrangement, Fingerstyle

AutoScroll: Slow | Medium | Fast
Title: Tsubasa wo kudasai
Artist: Megumi Hayashibara
Anime: Evangelion: 2.0 You Can (Not) Advance
Arrangement by: GomiNoUmi
Song: https://www.youtube.com/watch?v=lCfYrxx_hBE
Tab made: 8.2.2017

Standard tuning 

You can figure out the timings by listening to the song, they are quite simple. 
Just repeat verses and choruses and you have the whole song. Outro is the same as the middlepart that's tabbed after the chorus: C Dm Gsus4 G

		Intro
E|--------|-0------------------0---|-1----0---------0----|---------------------|---------------------|
B|--------|---------------1--------|-0---------3---------|-3---------1---------|---------------------|
G|--------|-----------0------------|-----------0---------|-2---------2---------|----------------0----|
D|--------|------2-----------------|---------------------|------2---------2----|-----------2---------|
A|--------|-3----------------------|---------------------|-0-------------------|------2--------------|
E|--------|------------------------|-3-------------------|---------------------|-0-------------------|


E|-1------------------1---|-3----1----0---------|---------------------|---------------------|
B|-1-------------1--------|-3--------------3----|---------------------|---------------------|
G|-----------2------------|-----------2---------|-5--------------5----|-4--------------4----|
D|------3-----------------|-0-------------------|-5---------5---------|-5---------5---------|
A|------------------------|---------------------|------5--------------|------5--------------|
E|-1----------------------|---------------------|-3-------------------|-3-------------------|


	Verse
E|---------------------|--------------------------|---------------------|---------------------|
B|---------------------|--------------------------|---------------------|---------------------|
G|------0--------------|-----------2----0---------|-0--------------0----|-----------0----0----|
D|-2--------------2----|---------------------4----|-2---------2---------|------2--------------|
A|-3---------3---------|------2-------------------|-1----1--------------|-1-------------------|
E|---------------------|-3---------3--------------|---------------------|---------------------|


E|---------------------|---------------------|---------------------|---------------------|
B|---------------------|---------------------|---------------------|---------------------|
G|-2---------2---------|------2----0---------|-0-------------------|----------------0----|
D|-3---------3---------|------3---------3----|-2--------------2----|-----------2---------|
A|------3--------------|-3-------------------|-3---------3---------|------3--------------|
E|-1--------------1----|---------------------|------3--------------|-3-------------------|


E|---------------------|---------------------|---------------------|---------------------|
B|---------------------|---------------------|---------------------|---------------------|
G|-----------7---------|-7--------------5----|-0--------------0----|-----------0----0----|
D|-4---------4----4----|-7----4----7---------|-----------0---------|------0--------------|
A|-5----5--------------|-5-------------------|------2--------------|---------------------|
E|---------------------|---------------------|-3-------------------|-3-------------------|


E|---------------------|---------------------|---------------------|---------------------|
B|---------------------|---------------------|---------------------|---------------------|
G|-----------7---------|-7--------------5----|-5--------------5----|-4--------------4----|
D|-4---------4----4----|-7----4----7---------|-5---------5---------|-5---------5---------|
A|-5----5--------------|-5-------------------|------5--------------|------5--------------|
E|---------------------|---------------------|-3-------------------|-3-------------------|


E|---------------------|--------------------------|---------------------|---------------------|
B|---------------------|--------------------------|---------------------|---------------------|
G|------0--------------|-----------2----0---------|-0--------------0----|-----------0----0----|
D|-2--------------2----|---------------------4----|-2---------2---------|------2--------------|
A|-3---------3---------|------2-------------------|-1----1--------------|-1-------------------|
E|---------------------|-3---------3--------------|---------------------|---------------------|


E|---------------------|---------------------|---------------------|---------------------|
B|---------------------|---------------------|---------------------|---------------------|
G|-2---------2---------|------2----0---------|-0-------------------|----------------0----|
D|-3---------3---------|------3---------3----|-2--------------2----|-----------2---------|
A|------3--------------|-3-------------------|-3---------3---------|------3--------------|
E|-1--------------1----|---------------------|------3--------------|-3-------------------|


E|---------------------|---------------------|---------------------|---------------------|
B|---------------------|---------------------|---------------------|---------------------|
G|-----------7---------|-7--------------5----|-0--------------0----|-----------0----0----|
D|-4---------4----4----|-7----4----7---------|-----------0---------|------0--------------|
A|-5----5--------------|-5-------------------|------2--------------|---------------------|
E|---------------------|---------------------|-3-------------------|-3-------------------|


E|---------------------|---------------------|---------------------|---------------------|
B|---------------------|---------------------|---------------------|---------------------|
G|-----------7---------|-7--------------5----|-5--------------5----|-----------5---------|
D|-4---------4----4----|-7----4----7---------|-5---------5---------|------5---------5----|
A|-5----5--------------|-5-------------------|------5--------------|-5-------------------|
E|---------------------|---------------------|-3-------------------|-3-------------------|

							   Chorus

E|------------------------------|---------------------|-0----0----1---0--------|--------------0---------|
B|------------------------------|-----------1----3----|-1---------1--------3---|-------------------3----|
G|-4------------4-------5-------|-7-------------------|------------------------|--------------0---------|
D|-5----5---7-------------------|-5----5--------------|------------------------|------------------------|
A|------------------------------|-5---------0----2----|-3----------------------|---------2--------------|
E|-3----------------------------|---------------------|------------------------|---3--------------------|


E|------------------------|------------------------|---------------------|---------------------|
B|-1----1----3---1----0---|--------------0---------|-----------1---------|-----------1---------|
G|-2---------2------------|--------------0----0----|-2---------2----2----|-0---------0----0----|
D|------------------------|------------------------|------3--------------|------2--------------|
A|-0----------------------|---------2--------------|---------------------|-3-------------------|
E|------------------------|---0--------------------|-1-------------------|---------------------|


E|---------------------|---------------------|-0----0----1---0--------|--------------0---------|
B|-3--------------3----|-3---------1----3----|-1---------1--------3---|-------------------3----|
G|-3---------3---------|-0-------------------|------------------------|--------------0---------|
D|------3--------------|------0--------------|------------------------|------------------------|
A|-1-------------------|-----------0----2----|-3----------------------|---------2--------------|
E|---------------------|-3-------------------|------------------------|---3--------------------|


E|------------------------|------------------------|---------------------|---------------------|
B|-1----1----3---1----0---|--------------0---------|-----------1---------|-----------1---------|
G|-2---------2------------|--------------0----0----|-2---------2----2----|-0---------0----0----|
D|------------------------|------------------------|------3--------------|------2--------------|
A|-0----------------------|---------2--------------|---------------------|-3-------------------|
E|------------------------|---0--------------------|-1-------------------|---------------------|


E|---------------------|--------------------------|------------------------|---------------------|
B|-3--------------3----|-3---------3----1----0----|-1---------1------------|-1---------1---------|
G|-3---------3---------|-0------------------------|-0---------0--------0---|-0--------------0----|
D|------3--------------|------0-------------------|------2---------2-------|------2--------------|
A|-1-------------------|--------------------------|-3----------------------|-3-------------------|
E|---------------------|-3---------3--------------|------------------------|---------------------|


E|-0---------------|---------------------|-8-------------------|---------------------|
B|-1-----1---------|-1---------1---------|-8----8----8---------|---------------------|
G|-0-----0---------|-0---------0---------|-9---------9----9----|-9-------------------|
D|-2----------2----|------2---------2----|-10--------10--------|-10---10---10--------|
A|-3---------------|-3-------------------|-10------------------|-10--------10---10---|
E|-----------------|---------------------|-8-------------------|---------------------|


E|-5---------5---------|-5---------5---------|---------------------|---------------------|
B|-6---------6---------|-6---------6---------|---------------------|---------------------|
G|-7---------7---------|-7---------7---------|-5---------5---------|-4---------4---------|
D|-7----7---------7----|------7---------7----|-5---------5---------|-5---------5---------|
A|-5-------------------|-5-------------------|------5---------5----|------5---------5----|
E|---------------------|---------------------|-3-------------------|-3-------------------|


E|--------|
B|--------|
G|--------|
D|--------|
A|--------|
E|--------|

Login or Register to remove this ad.