Ads

Lilium (Elfen Lied) Guitar Tab

Submitted: Mar 13, 2012 by Yogurt (Last updated: Mar 13, 2012)

4.88889
Average: 4.9 (9 votes)
Download | Listen
Game: Elfen Lied
Composer(s): Kumiko Oguro
Style: Arrangement, Fingerstyle, Pinch harmonics

AutoScroll: Slow | Medium | Fast
                                                   ^                    
     Q    Q    Q    Q       Q    Q    Q    Q       Q    Q    Q    Q     
E||-------7----2---------|-------3----3---------|--0----7----2---------|
B||--5--------------0----|----------------------|--0--------------0----|
G||----------------------|--2--------------0----|--0-------------------|
D||----------------------|------------2---------|--2-------------------|
A||------------2---------|----------------------|------------2---------|
E||----------------------|----------------------|----------------------|


                         ^                                           
  Q    Q    Q    Q       Q    Q    Q    Q       Q    Q    Q    Q     
-------3----5----3----|--0-------------------|-------2--------------|
----------------------|--0----0--------------|------------3----1----|
--2-------------------|--0---------2----0----|--2-------------------|
------------2---------|----------------------|----------------------|
----------------------|--3-------------------|----------------------|
----------------------|----------------------|----------------------|


                                                ^                   
  Q    Q    Q    Q       Q    Q    Q    Q       Q    Q    H         
----------------------|-------0--------------|------------0--------|
--3-------------------|------------1---------|--1----3-------------|
-------2----0---------|--1--------------4----|--2------------------|
-----------------4----|--2-------------------|--2------------------|
--2-------------------|----------------------|--0------------------|
----------------------|--0-------------------|---------------------|


                                                ^                 
  Q    Q    Q    Q       Q    Q    Q    Q       W                 
--0----2----3----5----|--3-------------------|--2----------------|
----------------------|------------5---------|--4----------------|
----------------------|-------4---------4----|--4----------------|
----------------------|----------------------|--4----------------|
--1-------------------|--2-------------------|-------------------|
----------------------|----------------------|-------------------|


  Q    Q    Q    Q       Q    Q    Q    Q       Q    Q    Q    Q     
-------7----2---------|-------3----3---------|--0----7----2---------|
--5--------------0----|----------------------|--0--------------0----|
----------------------|--2--------------0----|--0-------------------|
----------------------|------------2---------|--2-------------------|
------------2---------|----------------------|------------2---------|
----------------------|----------------------|----------------------|


  Q    Q    Q    Q       Q    Q    Q    Q       Q    Q    Q    Q     
-------3----5----3----|--0-------------------|-------2--------------|
----------------------|--0----0--------------|------------3----1----|
--2-------------------|--0---------2----0----|--2-------------------|
------------2---------|----------------------|----------------------|
----------------------|--3-------------------|----------------------|
----------------------|----------------------|----------------------|


  Q    Q    Q    Q       Q    Q    Q    Q       Q    Q    Q    Q     
----------------------|-------0--------------|-------5--------------|
--3-------------------|------------1---------|------------8----7----|
-------2----0---------|--1--------------4----|--5-------------------|
-----------------4----|--2-------------------|----------------------|
--2-------------------|----------------------|----------------------|
----------------------|--0-------------------|--5---------6---------|


  Q    Q    Q    Q       Q    Q     Q    Q       Q    Q    Q    Q     
----------------------|------------------7----|--8--------------8----|
----------------------|-------9----10---------|-------8----7---------|
--9----8----6----8----|--9--------------------|----------------------|
----------------------|-----------------------|--7-------------------|
------------6---------|--7--------------------|------------5---------|
--7-------------------|-----------------------|----------------------|


  ^                       ^                                              
  Q     Q    Q    Q       Q    Q    E  E   Q       Q    Q     Q    Q     
--7----10---------7----|--6---------------------|------------------7----|
-------------8---------|--5----8----7-----------|-------9----10---------|
--7--------------------|--6------------9--------|-----------------------|
--5--------------------|--5---------------10----|--9--------------------|
-------------7---------|------------------------|-----------------------|
-----------------------|------------------------|-----------------------|


                         ^                       ^                    
  Q    Q    Q    Q       Q     Q    Q    Q       Q    Q    Q    Q     
--8--------------8----|--7----10---------7----|--6-------------------|
-------8----7---------|-------------8---------|--5----8----7---------|
----------------------|--7--------------------|--6--------------9----|
--7-------------------|--5--------------------|--5-------------------|
------------5---------|-------------7---------|----------------------|
----------------------|-----------------------|----------------------|


                          ^                                        
  Q    Q    Q     Q       W                   Q    Q    Q    Q     
-----------------------|-------------------|-------7----2---------|
--8--------------10----|--7----------------|--5--------------0----|
------------9----------|--8----------------|----------------------|
-------9---------------|--9----------------|----------------------|
-----------------------|-------------------|------------2---------|
--7--------------------|--7----------------|----------------------|


                         ^                                           
  Q    Q    Q    Q       Q    Q    Q    Q       Q    Q    Q    Q     
-------3----3---------|--0----7----2---------|-------3----5----3----|
----------------------|--0--------------0----|----------------------|
--2--------------0----|--0-------------------|--2-------------------|
------------2---------|--2-------------------|------------2---------|
----------------------|------------2---------|----------------------|
----------------------|----------------------|----------------------|


  ^                                                                  
  Q    Q    Q    Q       Q    Q    Q    Q       Q    Q    Q    Q     
--0-------------------|-------2--------------|----------------------|
--0----0--------------|------------3----1----|--3-------------------|
--0---------2----0----|--2-------------------|-------2----0---------|
----------------------|----------------------|-----------------4----|
--3-------------------|----------------------|--2-------------------|
----------------------|----------------------|----------------------|


  Q    Q    Q    Q       Q    Q    Q    Q       Q    Q    Q    Q     
-------0--------------|-------5----3----2----|----------------------|
------------1---------|----------------------|--5----4----2----4----|
--1--------------4----|--5-------------------|----------------------|
--2-------------------|----------------------|------------1---------|
----------------------|------------1---------|--2-------------------|
--0-------------------|--5-------------------|----------------------|


  Q    Q    Q    Q       H        Q    Q       Q    Q    Q    Q     
----------------------|---------------------|----------------------|
--5-------------------|---------------------|----------------------|
----------------------|--0--------0----2----|--4--------------2----|
--2---------2----4----|---------------------|------------2---------|
-------2--------------|---------------------|-------2--------------|
----------------------|---------------------|--0-------------------|


  ^                                                                 
  Q    Q    Q    Q       Q    Q    Q    Q       Q    Q    H         
----------------------|----------------------|---------------------|
--1----0--------------|----------------------|---------------------|
--2---------2----0----|------------0----2----|--4------------------|
--2-------------------|--4-------------------|------------2--------|
----------------------|--2----2--------------|-------2-------------|
----------------------|----------------------|--0------------------|


  ^         ^                                                       
  Q    Q    Q    Q       Q    Q    H           Q    Q    Q    Q     
----------------------|---------------------|----------------------|
--2---------0---------|---------------------|----------------------|
--2----2----2---------|------------0--------|--0----2----4---------|
--2---------2---------|--2----4-------------|----------------------|
--0--------------2----|---------------------|-----------------2----|
----------------------|---------------------|------------0---------|


            ^                                                        
  Q    Q    Q    Q       Q    Q    Q    Q       Q    Q    Q    Q     
----------------------|----------------------|----------------------|
------------1----0----|----------------------|----------------------|
-------2----2---------|--2----0--------------|--0----2----4---------|
--2---------2---------|------------4---------|----------------------|
----------------------|------------2----2----|-----------------2----|
----------------------|----------------------|------------0---------|


       ^         ^                                       ^          
  Q    Q    Q    Q       Q    Q    Q    Q       H        Q    Q     
----------------------|----------------------|-----------0---------|
-------2---------0----|----------------------|-----------1---------|
-------2----2----2----|-----------------0----|--L--------0---------|
--2----2---------2----|-------2----4---------|----------------2----|
-------0--------------|--2-------------------|-----------3---------|
----------------------|----------------------|---------------------|


            ^                                  ^         ^          
  Q    Q    Q    Q       Q    Q    H           Q    Q    Q    Q     
-------0--------------|---------------------|----------------------|
------------3----1----|--0------------------|--2---------0---------|
--0---------2---------|---------------------|--2----2----2---------|
------------4---------|------------2--------|--2---------2---------|
----------------------|-------2-------------|--0--------------2----|
------------2---------|--0------------------|----------------------|


  Q    Q    H           Q    Q    Q    Q       Q    Q    Q    Q     
---------------------|-------7----2---------|-------3----3---------|
---------------------|--5--------------0----|----------------------|
------------0--------|----------------------|--2--------------0----|
--2----4-------------|----------------------|------------2---------|
---------------------|------------2---------|----------------------|
---------------------|----------------------|----------------------|


  ^                                             ^                    
  Q    Q    Q    Q       Q    Q    Q    Q       Q    Q    Q    Q     
--0----7----2---------|-------3----5----3----|--0-------------------|
--0--------------0----|----------------------|--0----0--------------|
--0-------------------|--2-------------------|--0---------2----0----|
--2-------------------|------------2---------|----------------------|
------------2---------|----------------------|--3-------------------|
----------------------|----------------------|----------------------|


  Q    Q    Q    Q       Q    Q    Q    Q       Q    Q    Q    Q     
-------2--------------|----------------------|-------0--------------|
------------3----1----|--3-------------------|------------1---------|
--2-------------------|-------2----0---------|--1--------------4----|
----------------------|-----------------4----|--2-------------------|
----------------------|--2-------------------|----------------------|
----------------------|----------------------|--0-------------------|


  Q    Q    Q    Q       Q    Q    Q    Q       H        H         
-------5--------------|----------------------|--------------------|
------------8----7----|----------------------|-----------7--------|
--5-------------------|--9----8----6----8----|--9-----------------|
----------------------|----------------------|--------------------|
----------------------|------------6---------|--7-----------------|
--5---------6---------|--7-------------------|--------------------|


                         PH         
  H        H             H          
-----------7--------|--<>0--------||
--8-----------------|-------------||
--------------------|-------------||
--------------------|-------------||
--------------------|-------------||
--------------------|-------------||




Duration Legend
---------------
W - whole
H - half
Q - quarter
E - 8th
S - 16th
T - 32nd
X - 64th
. - note dotted
|-n-|  - n-tuplets


Tablature Legend
----------------
L - tied note
x - dead note
g - grace note
(n) - ghost note
> - accentuded note
NH - natural harmonic
AH - artificial harmonic
TH - tapped harmonic
SH - semi harmonic
PH - pitch harmonic
h - hammer on
p - pull off
b - bend
br - bendRelease
pb - preBend
pbr - preBendRelease
brb - bendReleaseBend
\n/ - tremolo bar dip
\n - tremolo bar dive
-/n - tremolo bar Release up
/n\ - tremolo bar inverted dip
/n - tremolo bar return
-\n - tremolo bar Release down
S - shift slide
s - legato slide
/ -  slide into from below or out of upwards
\ -  slide into from above or out of downwards
~ - vibrato
W - wide vibrato
tr - trill
TP - tremolo picking
T - tapping
S - slap
P - pop
< - fade in
^ - brush up
v - brush down
Login or Register to remove this ad.

3 comments on Lilium

IF you want to play this in

IF you want to play this in the same key as the original song, put a capo on the second fret.

I'm bad at Guitar Pro so the final note is an open harmonic on the 12th fret.

this tab is way better than

5

this tab is way better than the other tab which only includes the lead
and i cant understand why the other Version is top ranked and this not

Cause it's been on the site

Cause it's been on the site since 07 and many people want just the lead. Rankings are meaningless.