Ads

Watch the Skies (The Elder Scrolls V: Skyrim) Guitar Tab

Submitted: Apr 13, 2014 by Bluefingers

5
Average: 5 (2 votes)
Download | Listen
Game: The Elder Scrolls V: Skyrim
Composer(s): Jeremy Soule
Style: Arrangement
Series: The Elder Scrolls

AutoScroll: Slow | Medium | Fast
      				 Watch the Skies
                                     Skyrim
				  Jeremy Soule

                                                                    Arranged by Tim Herlihy

Tuning (low to high) - CGCFCD#



      ^                                                            
      Q    Q    Q    E     Q    Q    Q    E     Q    Q    Q    E   
D#||--------------------|--------------------|--------------------|
C ||--------------------|--------------------|--------------------|
F ||--------------------|--------------------|--------------------|
C ||--0-----------------|--0-----------------|--0-----------------|
G ||--0-----------------|--------------------|--------------------|
C ||--0----0----0----0--|-------0----0----0--|-------0----0----0--|


                          ^    v    v    v     ^    v    v    v   
  Q    E  Q    E  E       Q    Q    Q    E     Q    Q    Q    E   
---------------------||---0----0----0----0--|--------------------|
---------------------||---0----0----0----0--|--2----2----2----2--|
---------------------||*--2----2----2----2--|--2----2----2----2--|
--0-------0-------0--||*--0----0----0----0--|--2----2----2----2--|
---------------------||---0-----------------|--0-----------------|
-------0-------0-----||---0-----------------|--0-----------------|


  ^    v    v    v     ^    v    ^    v       ^    v    v    v   
  Q    Q    Q    E     Q    Q    Q    E       Q    Q    Q    E   
--------------------|---------------------||--0----0----0----0--|
--0----0----0----0--|--2----2----2----2---||--0----0----0----0--|
--2----2----2----2--|--2----2----2----2--*||--2----2----2----2--|
--0----0----0----0--|--2----2----2----2--*||--3----3----3----3--|
--0-----------------|--0---------0--------||--0-----------------|
--0-----------------|--0---------0--------||--0-----------------|


  ^    v    v    v     ^    v    v    v     ^    v    ^    v   
  Q    Q    Q    E     Q    Q    Q    E     Q    Q    Q    E   
--------------------|--------------------|--------------------|
--2----2----2----2--|--0----0----0----0--|--2----2----2----2--|
--2----2----2----2--|--2----2----2----2--|--2----2----2----2--|
--2----2----2----2--|--0----0----0----0--|--2----2----2----2--|
--0-----------------|--0-----------------|--0---------0-------|
--0-----------------|--0-----------------|--0---------0-------|


  ^    v    ^    v     ^    v    ^    v     ^    v    ^    v   
  Q    Q    Q    E     Q    Q    Q    E     Q    Q    Q    E   
--0----0----0----0--|--2----2----2----2--|--4----4----4----4--|
--0----0----0----0--|--0----0----0----0--|--0----0----0----0--|
--2----2----2----2--|--0----0----0----0--|--2----2----2----2--|
--3----3----3----3--|--0----0----0----0--|--0----0----0----0--|
--0---------0-------|--0---------0-------|--0---------0-------|
--0---------0-------|--0---------0-------|--0---------0-------|


  ^    v    ^    v                                               
  Q    Q    Q    E       Q    Q    Q    E     Q    Q    Q    E   
--------------------||---0----0----0----0--|--------------------|
--2----2----2----2--||---0----0----0----0--|--2----2----2----2--|
--2----2----2----2--||*--2----2----2----2--|--2----2----2----2--|
--2----2----2----2--||*--3----3----3----3--|--2----2----2----2--|
--0---------0-------||---0---------0-------|--0---------0-------|
--0---------0-------||---0---------0-------|--0---------0-------|

 1.					      2.
 _________________________________________    ___________________
|					     |
  Q    Q    Q    E     Q    Q    Q    E       Q    Q    Q    E   
--2----2----2----2--|--0------------------||--5----5----5----5--|
--0----0----0----0--|--0----2----0--------||--0----0----0----0--|
--0----0----0----0--|--2----2----2----2--*||--0----0----0----0--|
--0----0----0----0--|--0----2----0-------*||--0----0----0----0--|
--0---------0-------|--0----0----0--------||--0---------0-------|
--0---------0-------|--0----0----0--------||--0---------0-------|

____________________

  Q    Q    Q    E     Q    Q    Q    E     Q    Q    Q    E   
--4----2----0-------|--9----9----9----9--|--5----5----5----5--|
--0----0----0----0--|--0----0----0----0--|--0----0----0----0--|
--2----0----2-------|--7----7----7----7--|--3----3----3----3--|
--0----0----0-------|--0----0----0----0--|--5----5----5----5--|
--0----0----0-------|--8---------8-------|--0---------0-------|
--0----0----0-------|--0---------0-------|--0---------0-------|


  ^    ^    ^    v                                             
  Q    Q    Q    E     Q    Q    Q    E     Q    Q    Q    E   
--2----2----2----0--|--4----2----0-------|--9----9----9----9--|
--0----0----0----0--|--0----0----0----0--|--0----0----0----0--|
--0----0----0----0--|--2----0----2-------|--7----7----7----7--|
--0----0----0----0--|--3----0----0-------|--0----0----0----0--|
--0----0----0-------|--0----0----0-------|--8---------8-------|
--0----0----0-------|--0----0----0-------|--0---------0-------|


  Q    Q    Q    E     Q    Q    Q    E     Q    Q    Q    E   
--5----5----5----5--|--7----7----7----7--|--7----7----7----7--|
--0----0----0----0--|--0----0----0----0--|--0----0----0----0--|
--3----3----3----3--|--5----5----5----5--|--5----5----5----5--|
--5----5----5----5--|--7----7----7----7--|--7----7----7----7--|
--0---------0-------|--0---------0-------|--0----0----0----0--|
--0---------0-------|--0---------0-------|--0----0----0----0--|


					      1.					
 					      ___________________
					     |		
    ^                                                            
    Q    Q    Q    E     Q    Q    Q    E     Q    Q    Q    E   
|---------------------|--------------------|--------------------|
|---------------------|--------------------|--------------------|
|*--------------------|--------------------|--------------------|
|*--0-----------------|--------------------|--------------------|
|---0-----------------|--------------------|--------------------|
|---0----0----0----0--|--0----0----0----0--|--0----0----0----0--|

			 2.
_____________________    ________________________________________
|			|		 
                         ^                                       
  Q    Q    Q    E       Q    Q    Q    E     Q    E  Q    Q     
---------------------||--------------------|--------------------|
---------------------||--------------------|--------------------|
--------------------*||--2-----------------|--------------------|
--------------------*||--0-----------------|--0-------0---------|
---------------------||--0-----------------|--------------------|
--0----0----0----0---||--0----0----0----0--|-------0-------0----|


    Q    Q    Q    E     Q    Q    Q    E     Q    Q    Q    E   
|---0----0----0----0--|--------------------|--------------------|
|---0----0----0----0--|--2----2----2----2--|--0----0----0----0--|
|*--2----2----2----2--|--2----2----2----2--|--2----2----2----2--|
|*--0----0----0----0--|--2----2----2----2--|--0----0----0----0--|
|---0-----------------|--0-----------------|--0-----------------|
|---0-----------------|--0-----------------|--0-----------------|


  Q    Q    Q    E   4x  Q    Q    Q    E     Q    Q    Q    E   
---------------------||--1----1----1----1--|--3----3----3----3--|
--2----2----2----2---||--1----1----1----1--|--1----1----1----1--|
--2----2----2----2--*||--3----3----3----3--|--1----1----1----1--|
--2----2----2----2--*||--4----4----4----4--|--1----1----1----1--|
--0---------0--------||--1----1----1----1--|--1----1----1----1--|
--0---------0--------||--1----1----1----1--|--1----1----1----1--|


  Q    Q    Q    E     Q    Q    Q    E     Q    Q    Q    E   
--3----3----3----3--|--1-----------------|--1----1----1----1--|
--1----1----1----1--|--1----3----1-------|--1----1----1----1--|
--1----1----1----1--|--3----3----3----3--|--3----3----3----3--|
--1----1----1----1--|--1----3----1-------|--4----4----4----4--|
--1----1----1----1--|--1----1----1-------|--1----1----1----1--|
--1----1----1----1--|--1----1----1-------|--1----1----1----1--|


  Q    Q    Q    E     Q    Q    Q    E     Q    Q    Q     E   
--------------------|--6----6----6----1--|--5----3----1--------|
--3----3----3----3--|--6----6----6----1--|--1----1----1--------|
--3----3----3----3--|--8----8----8-------|--3----1----3--------|
--3----3----3----3--|--9----9----9-------|--4----1----4S----8--|
--1----1----1----1--|--6----6----6-------|--1----1----1--------|
--1----1----1----1--|--6----6----6-------|--1----1----1--------|


   Q     Q     Q     E     Q    Q    Q    E     Q    Q    Q    E   
--10----10----10----10--|--6----6----6----6--|--3----3----3----1--|
---8-----8-----8-----8--|--6----6----6----6--|--1----1----1----1--|
--11----11----11----11--|--8----8----8----8--|--1----1----1-------|
---8-----8-----8-----8--|--9----9----9----9--|--1----1----1-------|
---9-----9-----9-----9--|--6----6----6----6--|--1----1----1-------|
---8-----8-----8-----8--|--6----6----6----6--|--1----1----1-------|


  Q    Q    Q     E      Q     Q     Q     E     Q    Q    Q    E   
--5----3----1--------|--10----10----10----10--|--6----6----6----6--|
--1----1----1--------|---8-----8-----8-----8--|--6----6----6----6--|
--3----1----3--------|--11----11----11----11--|--8----8----8----8--|
--4----1----4S----8--|---8-----8-----8-----8--|--9----9----9----9--|
--1----1----1--------|---9-----9-----9-----9--|--6----6----6----6--|
--1----1----1--------|---8-----8-----8-----8--|--6----6----6----6--|


                                            ^                  
  Q    Q    Q    E     Q    Q    Q    E     Q    Q    Q    E   
--8----8----8----8--|--8----8----8----8--|--------------------|
--6----6----6----6--|--6----6----6----6--|--------------------|
--6----6----6----6--|--6----6----6----6--|--------------------|
--6----6----6----6--|--6----6----6----6--|--1-----------------|
--6----6----6----6--|--6----6----6----6--|--1-----------------|
--6----6----6----6--|--6----6----6----6--|--1----1----1----1--|


                       ^                    ^                  
  Q    Q    Q    E     Q    Q    Q    E     Q    Q    Q    E   
--------------------|--------------------|--------------------|
--------------------|--------------------|--------------------|
--------------------|--1-----------------|--3-----------------|
--1-----------------|--3-----------------|--1-----------------|
--------------------|--1-----------------|--1-----------------|
-------1----1----1--|--1----1----1----1--|--1----1----1----1--|


  Q    Q    Q    E     Q    E  Q    Q       H        Q.       
--------------------|--------------------|------------------||
--------------------|--------------------|------------------||
--------------------|--------------------|------------------||
--1-----------------|--1-------1---------|------------------||
--------------------|--------------------|------------------||
-------1----1----1--|-------1-------1----|--L--------L------||




Duration Legend
---------------
W - whole
H - half
Q - quarter
E - 8th
S - 16th
T - 32nd
X - 64th
. - note dotted
|-n-|  - n-tuplets


Tablature Legend
----------------
L - tied note
x - dead note
g - grace note
(n) - ghost note
> - accentuded note
NH - natural harmonic
AH - artificial harmonic
TH - tapped harmonic
SH - semi harmonic
PH - pitch harmonic
h - hammer on
p - pull off
b - bend
br - bendRelease
pb - preBend
pbr - preBendRelease
brb - bendReleaseBend
\n/ - tremolo bar dip
\n - tremolo bar dive
-/n - tremolo bar Release up
/n\ - tremolo bar inverted dip
/n - tremolo bar return
-\n - tremolo bar Release down
S - shift slide
s - legato slide
/ -  slide into from below or out of upwards
\ -  slide into from above or out of downwards
~ - vibrato
W - wide vibrato
tr - trill
TP - tremolo picking
T - tapping
S - slap
P - pop
< - fade in
^ - brush up
v - brush down
Login or Register to remove this ad.