Ads

The Streets of Whiterun (The Elder Scrolls V: Skyrim) Guitar Tab

Submitted: Apr 05, 2016 by Matatiahu

5
Average: 5 (3 votes)
Download | Listen
Game: The Elder Scrolls V: Skyrim
Composer(s): Jeremy Soule
Style: Arrangement, Artificial harmonics, Fingerstyle, Natural harmonics
Series: The Elder Scrolls

Click here for a video example.

AutoScroll: Slow | Medium | Fast
The Streets of Whiterun
The Elder Scrolls V: Skyrim
Jeremy Soule

Tune: standard


E||--------------------------|--------------------------|
B||--<>12--------------------|--------------------------|
G||--------------------------|--------------------------|
D||----------<>2-------------|--<>2---------------------|
A||--------------------------|---------<>2--------------|
E||--------------------------|--------------------------|

--------------------------|--------------------------|
--<>12--------------------|--------------------------|
--------------------------|--------------------------|
----------<>2-------------|--<>2---------------------|
--------------------------|---------<>2--------------|
--------------------------|--------------------------|

--------------------------|--------------------------|
--<>12--------------------|--------------------------|
--------------------------|--------------------------|
----------<>2-------------|--<>2---------------------|
--------------------------|---------<>2--------------|
-----4--------------------|--------------------------|

--------------------------|-----------------------0--|
--<>12--------------------|--------------------------|
--------------------------|--------------------------|
----------<>2-------------|--<>2---------------------|
--------2-----------------|---------<>2--------------|
-----4--------------------|--------------------------|

--------------------0--|-----------------------|--0--------------------|--------------------0--|
--0--------------------|--2-----------4--------|--0--------------------|-----------------------|
--2--------------------|--2--------------------|--------------4--------|-----------------------|
-----------------------|-----------------------|-----------------------|-----------------------|
--0--------------------|--2--------------------|-----------------------|-----------------------|
-----------------------|-----------------------|--2--------------------|--4--------------------|

--------------------0--|-----------------------|--0--------------------|--------------0--------|
--0--------------------|--2-----------4--------|--0--------------------|-----------------------|
--1--------------------|-----------------------|-----------------------|-----------------------|
-----------------------|--4--------------------|--2--------------------|-----------------------|
--0--------------------|--2--------------------|--4--------------------|-----------------------|
-----------------------|-----------------------|-----------------------|-----------------------|

--4-----------2--------|--0--------------------|--0--------------------|--------------0--------|
--5-----------4--------|--2-----------4--------|--0--------------------|-----------------------|
-----------------------|-----------------------|--------------4--------|-----------------------|
-----------------------|-----------------------|-----------------------|-----------------------|
--0--------------------|--2--------------------|-----------------------|-----------------------|
-----------------------|-----------------------|--2--------------------|--4--------------------|

--4-----------2--------|--0-----------------2--|--0--------------------|--------------0--------|
--5-----------4--------|--------------4--------|--0--------------------|-----------------------|
-----------------------|--4--------------------|--------------4--------|-----------------------|
-----------------------|-----------------------|-----------------------|-----------------------|
--0--------------------|--2--------------------|--4--------------------|-----------------------|
-----------------------|-----------------------|-----------------------|--4--------------------|

--7-----------5--------|--4-----------2--------|-----0-----------------|--------------0--------|
--9-----------7--------|--5-----------4--------|--4-----0--------------|-----------------------|
-----------------------|-----------------------|--4-----------4--------|-----------------------|
-----------------------|-----------------------|-----------------------|-----------------------|
--0--------------------|--2--------------------|-----------------------|-----------------------|
-----------------------|-----------------------|--2--------------------|--4--------------------|

--7-----------5--------|-----------------------|--0--------------------|--------------------0--|
--5--------------------|--9------------7-------|-----4--------4--------|-----------------------|
-----------------------|--8--------------------|--------6--------------|-----------------------|
-----------------------|-----------------------|-----------------------|-----------------------|
--0--------------------|-----------------------|--4--------------------|-----------------------|
-----------------------|--7--------------------|-----------------------|--4--------------------|

--4-----------2--------|--0-----------------0--|--0--------------------|--------------------0--|
-----------------------|--------------4--------|--------------0--------|-----------------------|
--------------2--------|--------------4--------|-----------------------|-----------------------|
--------2-----------2--|--------4-----------4--|--------------4--------|--------------1--------|
--0--------------------|--2--------------------|--------4-----------4--|--------2-----------2--|
-----------------------|-----------------------|--2--------------------|--4--------------------|

--4-----------2--------|--0-----------------2--|-----------------------|--------------------0--|
-----------------------|--------------4--------|--5-----4-----0--------|-----------------------|
--------------2--------|--------------4--------|--------------6--------|-----------------------|
--------2-----------2--|--------4-----------4--|--------6--------------|--------------6--------|
--0--------------------|--2--------------------|--4-----------------6--|--------7-----------7--|
-----------------------|-----------------------|-----------------------|--4--------------------|

--7-----------5--------|-----------------------|-----------------------|--------------------0--|
-----------------------|--9-----------7-----9--|--9--------------------|-----------------------|
--------------6--------|--------------8--------|--------------9--------|-----------------------|
--------7-----------7--|--------9-----------9--|-------------11--------|--------------6--------|
--0--------------------|-----------------------|-------11----------11--|--------7-----------7--|
-----------------------|--7--------------------|--9--------------------|--4--------------------|

--7-----------5--------|-----------------------|--0--------------------|--------------------0--|
-----------------------|--9-----------7--------|-----4-----------------|-----------------------|
--------------6--------|--------------8--------|--------6--------------|-----------------------|
--------7-----------7--|--------9--------------|-----------------------|-----------------------|
--0--------------------|-----------------------|--4--------------------|-----------------------|
-----------------------|--7--------------------|-----------------------|-----------------------|

--0---0---0-------0---0---0-------0---0---0---------------0------
--------------4---------------4---------------4-------4-------4--
---4-4-4-4-4-4--4--4-4-4-4--4---4--4-4-4-4-4-4--4--4-4-4-4-4-4---
-----------------------------------------------------------------
--0-----------------------2--------------------------------------
----------------------------------2---------------4--------------

--0---0---0-------0---0---0-------0---0---0-------0---0---0------
--------------4---------------4---------------4---------------4--
---4-4-4-4-4-4--4--4-4-4-4--4---4--4-4-4-4-4-4--4--4-4-4-4-4-4---
-----------------------------------------------------------------
--0---------------2---------------4------------------------------
--------------------------------------------------4--------------

--4-------2-------0---0-------0---0-------0---------------0------
------4-------4-----------4-----------4-------4-------4-------4--
---4-4--4---4---4--4-4--4---4---4--4-4-4-4-4-4--4----4-4-4-4-4---
-----------------------------------------------------------------
--0---------------2----------------------------------------------
----------------------------------2---------------4--------------

--4-------2-------0---0-------2---0---0---0---------------0------
------4-------4-----------4-------4-----------4-------4-------4--
---4-4--4---4---4--4-4--4---4-----4--4-4-4-4-4--4----4-4-4-4-4---
-----------------------------------------------------------------
--0---------------2---------------4------------------------------
----------------------------------0---------------4--------------

--7-------5-------4-------2---4---4-------0---------------0------
------4-------4-------4---------------4-------4-------4-------4--
---4-4--4---4---4--4-4--4--4-4-----4-4--4---4---4----4-4-4--4----
-----------------------------------------------------------------
--0---------------2---------------4------------------------------
--------------------------------------------------4--------------

--7-------5-----------------------0---------------------------0--
------------------9-------7----------4---------------------------
------6-------6-------8-----------------6------------------------
---7-7--7---7---7--9-9--9----------------------------------------
--0-------------------------------4------------------------------
------------------7----------------------------------------------

--0--------------------|--0--------------------|-----0-----------------|--------------------0--|
-----4-----------------|-----4--------------4--|--4-----0--------------|-----------------------|
--------6--------------|--------6--------------|--4-----------4--------|-----------------------|
-----------------------|-----------------------|-----------------------|-----------------------|
--0--------------------|--2--------------------|--4--------------------|-----------------------|
-----------------------|-----------------------|-----------------------|-----------------------|

--4--------4--2-----2--|--0--------0--------0--|--0--------------------|-----------------------|
--------0--------------|--------0-----4--------|--------0-----0--------|-----------------------|
-----4-----------------|-----4-----------------|-----4-----4-----------|-----------------------|
-----------------------|-----------------------|-----------------------|<>2--------------------|
--4--------------------|--4--------------------|--4--------------------|-----------------------|
-----------------------|-----------------------|-----------------------|------------<>7--------|

--4--------4--2-----2--|--0--------0-------2---|--0--------------------|-----------------------|
--------0--------------|--------0-----4--------|--------0-----0--------|-----------------------|
-----4-----------------|-----4-----------------|-----4-----4-----------|-----------------------|
-----------------------|-----------------------|-----------------------|<>2--------------------|
--4--------------------|--4--------------------|--4--------------------|-----------------------|
-----------------------|-----------------------|-----------------------|------------<>7--------|

--------------------------|--------------------------|
--<>12--------------------|--------------------------|
--------------------------|--------------------------|
----------<>2-------------|--<>2---------------------|
-----4--------------------|--------------------------|
--------------------------|---------<>7--------------|

--------------------------|--------------------------|
--<>12--------------------|--------------------------|
--------------------------|--------------------------|
----------<>2-------------|--<>2---------------------|
--------------------------|--------------------------|
--------------------------|---------<>7--------------|

--------------------------|
--<>12--------------------|
--------------------------|
----------<>2-------------|
--------------------------|
--------------------------|
Login or Register to remove this ad.