Ads

The Streets of Whiterun (The Elder Scrolls V: Skyrim) Guitar Tab

Submitted: Mar 10, 2013 by Bhael

5
Average: 5 (11 votes)
Download | Listen
Game: The Elder Scrolls V: Skyrim
Composer(s): Jeremy Soule
Style: Arrangement, Artificial harmonics, Fingerstyle, Natural harmonics, Tapping, Tremolo
Series: The Elder Scrolls

Click here for a video example.

AutoScroll: Slow | Medium | Fast
                   

                  The Streets of Whiterun
                          Skyrim
                       Jeremy Soule
80 bpm


        NH                                             
        Q      Q    Q      Q         W                 
E||-----------------------------|---------------------|
B||--<>12-----------------------|---------------------|
G||-----------------------------|---------------------|
D||----------<>2----L----<>2----|---------------------|
A||-----------------------------|--<>2----------------|
E||-----0-----------------------|---------------------|


     NH                                                                     
     Q      Q    Q      Q         W                   H         Q     Q     
-----------------------------|---------------------|------------------0----|
--<>12-----------------------|---------------------|-----------------------|
-----------------------------|---------------------|-----------------------|
----------<>2----L----<>2----|---------------------|-----------(2)---------|
-----------------------------|--<>2----------------|-----------(2)---------|
-----0-----------------------|---------------------|--4--------------------|


    H        H           H         H           Q    Q    H         
|---4-----------------|--0------------------|--0------------------|
|------------7--------|---------------------|---------------------|
|*--------------------|------------8--------|---------------------|
|*--------------------|---------------------|---------------------|
|---0-----------------|---------------------|---------------------|
|---------------------|--7h-----------------|-------2----L--------|


  T                                                              
  H.           Q         W                    H        H         
---------------0-----||--0-----------------|-----------0--------|
---------------------||--------------------|--------------------|
--------------------*||--------------------|--------------------|
--------------------*||--------------------|--------------------|
---------------------||--------------------|--------------------|
--4------------------||--9h----------------|--4-----------------|


                                              ^                  
  H         H           H         H           W                  
--7------------------|---------------------|--------------------|
-----------10--------|--9------------------|--9h----------------|
---------------------|-----------11--------|--9h----------------|
---------------------|---------------------|--------------------|
--0------------------|---------------------|--------------------|
---------------------|--7------------------|--9h----------------|


                                                        ^          
   H         H           H        H           Q    Q    Q    Q     
-------------0--------|--4-----------------|--0--------------2----|
--(4)-----------------|-----------7--------|------------4---------|
--(4)-----------------|--------------------|------------4---------|
----------------------|--------------------|----------------------|
----------------------|--0-----------------|-------2--------------|
--(4)-----------------|--------------------|----------------------|


  ^                                                                  
  E  E  Q    H           H.           Q         Q    Q    Q    Q     
--0-------------------|---------------0----||---4---------2---------|
-----4----------------|--------------------||-----------------------|
--6-----6----L--------|--L-----------------||*------------2---------|
----------------------|--------------------||*-------2---------2----|
--4-------------------|--------------------||---0-------------------|
----------------------|--------------------||-----------------------|


                                                               ^       
  Q    Q    Q    Q       Q    Q    Q    Q       Q    Q    Q    Q       
--0-------------------|----------------------|-----------------0-----||
------------4---------|--5-------------------|-----------------0-----||
------------4---------|------------2---------|----------------------*||
-------4---------4----|-------4---------4----|------------6---------*||
--2-------------------|----------------------|-------7---------------||
----------------------|--2-------------------|--4--------------------||


                                        ^                            
  Q    Q    Q    Q       Q    Q    Q    Q       Q    Q    Q    Q     
--0-------------------|-----------------0----|--7---------5---------|
------------0---------|-----------------0----|----------------------|
------------6---------|----------------------|------------6---------|
-------6---------6----|------------6---------|-------7---------7----|
--4-------------------|-------6--------------|--0-------------------|
----------------------|--4-------------------|----------------------|


            ^                      ^                                 
  Q    Q    Q    Q       Q    Q    Q    Q       Q    Q    Q    Q     
--4---------2---------|--4-------------------|-----------------0----|
----------------------|------------2---------|----------------------|
------------4---------|------------2---------|----------------------|
-------4---------4----|-------4---------4----|------------6---------|
--2-------------------|----------------------|-------7--------------|
----------------------|--2-------------------|--4-------------------|


                                   ^            ^                         
  Q    Q    Q    Q       Q    Q    Q    Q       E  E  Q    Q    Q     E   
--4---------2---------|--0---------2---------|--4---------------7----11--|
----------------------|------------4---------|--5--4---------------------|
------------2---------|------------4---------|--------6----L-------------|
-------2---------2----|-------4---------4----|---------------------------|
--0-------------------|--2-------------------|--4------------------------|
----------------------|----------------------|---------------------------|


  |--3--|   |---3--|  |--3--|   |--3--|   
  E  E  E   E  E   E  E  E  E   E  E  E   
-----------11-----11-----------11-----9--|
--------9-------------------9------------|
-----9---------9---------9---------9-----|
-----------------------------------------|
-----------------------------------------|
--9-------------------9------------------|


  |--3--|  |--3--|  |--3--|  |---3--|   
  E  E  E  E  E  E  E  E  E  E  E   E   
-----------9-----9-----------9-----11--|
--------9-----------------9------------|
-----9--------9--------9--------9------|
---------------------------------------|
---------------------------------------|
--9-----------------9------------------|


  T   T    T    T   T   T    T    T  T   T    T    T  T   T    T    T  T   T    
----(11)-(11)-(11)----(11)-(11)-(11)---(11)-(11)-(11)---(11)-(11)-(11)---(11)-(1
------------------------------------------------------9-------------------------
-------------------------------------9---------------------------------9--------
-------------------11-----------------------------------------------------------
--------------------------------------------------------------------------------
--9-----------------------------------------------------------------------------


  T  T   T   T   T  T   T   T  T  T   T   T  T  T   T   T  T  T   T   T   T  T  
----(9)-(9)-(9)----(9)-(9)-(9)---(9)-(9)-(9)---(9)-(9)-(9)---(9)-(9)-(9)----(9)-
---------------------------------------------9----------------------------------
-------------------------------9---------------------------9--------------------
----------------11-------------------------------------------------------11-----
--------------------------------------------------------------------------------
--9-----------------------------------------------------------------------------


  T  T   T   T  T  T   T   T  T  T   T   T  T  T   T   T  T  T   T   T  T  T   T
----(7)-(7)-(7)---(7)-(7)-(7)---(7)-(7)-(7)---(7)-(7)-(7)---(7)-(7)-(7)---(7)-(7
--------------------------------------------5-----------------------------------
------------------------------6---------------------------6---------------------
----------------7-------------------------------------------------------7-------
--0-----------------------------------------------------------------------------
--------------------------------------------------------------------------------


  T  T   T   T  T  T   T   T  T  T   T   T  T  T   T   T  T  T   T   T  T  T   T
----(5)-(5)-(5)---(5)-(5)-(5)---(2)-(2)-(2)---(2)-(2)-(2)---(2)-(2)-(2)---(2)-(2
--------------------------------------------4-----------------------------------
------------------------------4---------------------------4---------------------
----------------4-------------------------------------------------------4-------
--2-----------------------------------------------------------------------------
--------------------------------------------------------------------------------


  T  T   T   T  T  T   T   T  T  T   T   T  T  T   T   T  T  T   T   T  T  T   T
----(4)-(4)-(4)---(4)-(4)-(4)---(4)-(4)-(4)---(4)-(4)-(4)---(4)-(4)-(4)---(4)-(4
--------------------------------------------2-----------------------------------
------------------------------2---------------------------2---------------------
----------------4-------------------------------------------------------4-------
--------------------------------------------------------------------------------
--2-----------------------------------------------------------------------------


  T  T   T   T  T  T   T   T  T  T   T   T  T  T   T   T  T  T   T   T  T  T   T
--------------------------------------------------------------------------------
----(4)-(4)-(4)---(4)-(4)-(4)---(4)-(4)-(4)---(4)-(4)-(4)---(4)-(4)-(4)---(4)-(4
--------------------------------------------4-----------------------------------
------------------------------6---------------------------6---------------------
----------------7-------------------------------------------------------7-------
--4-----------------------------------------------------------------------------


  T  T   T   T  T  T   T   T  T  T   T   T  T  T   T   T  T  T   T   T  T  T   T
----(0)-(0)-(0)---(0)-(0)-(0)---(0)-(0)-(0)---(0)-(0)-(0)---(0)-(0)-(0)---(0)-(0
--------------------------------------------2-----------------------------------
------------------------------2---------------------------2---------------------
----------------2-------------------------------------------------------2-------
--0-----------------------------------------------------------------------------
--------------------------------------------------------------------------------


  T  T   T   T  T  T   T   T  T  T   T   T  T  T   T   T  T  T   T   T  T  T   T
--------------------------------------------------------------------------------
----(5)-(5)-(5)---(5)-(5)-(5)---(4)-(4)-(4)---(4)-(4)-(4)---(4)-(4)-(4)---(4)-(4
------------------------------4---------------------------4---------------------
----------------4---------------------------4---------------------------4-------
--2-----------------------------------------------------------------------------
--------------------------------------------------------------------------------


  T  T   T   T  T  T   T   T  T  T   T   T  T  T   T   T  T  T   T   T  T  T   T
--------------------------------------------------------------------------------
----(5)-(5)-(5)---(5)-(5)-(5)---(5)-(5)-(5)---(5)-(5)-(5)---(5)-(5)-(5)---(5)-(5
------------------------------6---------------------------6---------------------
----------------6---------------------------6---------------------------6-------
--4-----------------------------------------------------------------------------
--------------------------------------------------------------------------------


  T  T   T   T  T  T   T   T  T  T   T   T  E  E  E   
-----------------------------------------------0--L--|
----(5)-(5)-(5)---(5)-(5)-(5)---(5)-(5)-(5)----------|
------------------------------6----------------------|
----------------6---------------------------6--------|
--4--------------------------------------------------|
-----------------------------------------------------|


  |--3--|  |--3--|  |--3--|     |--3--|  |--3--|  |--3--|   
  E  E  E  E  E  E  E  E  E     E  E  E  E  E  E  E  E  E   
--4-----------------2--------|--0--------------------------|
-----------2-----------------|--------------------4--------|
--------2-----2--------2-----|-----------4-----------------|
-----2-----------2--------2--|--------4-----4--------4-----|
--0--------------------------|-----2-----------2--------2--|
-----------------------------|-----------------------------|


  |--3--|  |--3--|  |--3--|     |--3--|  |--3--|        
  E  E  E  E  E  E  E  E  E     E  E  E  E  E  E  Q     
-----------------------------|--------------------0----|
--5--------------------------|-------------------------|
-----------2--------2--------|-----------4-------------|
--------4-----4--------4-----|--------6-----6----------|
-----4-----------4--------4--|-----7-----------7-------|
--2--------------------------|--4----------------------|


                                                  ^         
  |--3--|  |--3--|  |--3--|     |--3--|  |--3--|  |--3--|   
  E  E  E  E  E  E  E  E  E     E  E  E  E  E  E  E  E  E   
--7-----------------5--------|--4-----------------2--------|
-----------5-----------------|--------------------4--------|
--------6-----6--------6-----|-----------4-----------4-----|
-----7-----------7--------7--|--------4-----4-----------4--|
--0--------------------------|-----2-----------2-----------|
-----------------------------|-----------------------------|


  |--3--|  |--3--|  |--3--|     |--3--|  |--3--|        
  E  E  E  E  E  E  E  E  E     E  E  E  E  E  E  Q     
--4--------------------------|--------------------0----|
-----------2--------2--------|-------------------------|
--------2-----2--------2-----|-----------4-------------|
-----4-----------4--------4--|--------6-----6----------|
-----------------------------|-----7-----------7-------|
--2--------------------------|--4----------------------|


  |--3--|  |--3--|  |--3--|     |--3--|  |--3--|  |--3--|   
  E  E  E  E  E  E  E  E  E     E  E  E  E  E  E  E  E  E   
--4-----------------2--------|--0--------------------------|
-----------2-----------------|--------------------4--------|
--------2-----2--------2-----|-----------4-----------------|
-----2-----------2--------2--|--------4-----4--------4-----|
--0--------------------------|-----2-----------2--------2--|
-----------------------------|-----------------------------|


  |--3--|  |--3--|  |--3--|     |--3--|  |--3--|  |--3--|   
  E  E  E  E  E  E  E  E  E     E  E  E  E  E  E  E  E  E   
-----------------------------|-----------------------------|
--5--------------------------|--4--------------------------|
-----------2--------2--------|-----------4--------4--------|
--------4-----4--------4-----|--------6-----6--------6-----|
-----4-----------4--------4--|-----7-----------7--------7--|
--2--------------------------|--4--------------------------|


  |--3--|  |--3--|  |--3--|     |--3--|  |--3--|        
  E  E  E  E  E  E  E  E  E     E  E  E  E  E  E  Q     
--0--------------------------|--0-----------------2----|
-----------2--------2--------|-----------4-------------|
--------2-----2--------2-----|-----4--------4----------|
-----2-----------2--------2--|--------4--------4-------|
--0--------------------------|--2----------------------|
-----------------------------|-------------------------|


  |--3--|  |--3--|  |--3--|                    
  E  E  E  E  E  E  E  E  E     H.             
--0--------0--------0--------|---------------||
-----4--------4--------4-----|---------------||
--------6--------6--------6--|---------------||
-----------------------------|---------------||
--4--------------------------|--4------------||
-----------------------------|---------------||
Login or Register to remove this ad.

5 comments on The Streets of Whiterun

You have evolved into a

5

You have evolved into a monstrous fucking guitarist. Sweet tab, this is going to be a lot of fun. Any progress on that romance tab btw?

Ah, the elusive romance

Ah, the elusive romance arrangement. I have 5 arrangements to record, which I'm planning to power through next week. Then I have some professional recordings to do over easter (thehobbitthehobbitthehobbit), after/during which I can start the next line up, which includes Romance. Phew!

I'm starting to think you're

5

I'm starting to think you're Gaben Newell in disguise. Except I actually care about the Romance tab, not so much about HL 3. But hey, nothing wrong with the "It's done when it's done" mentality. Good luck!

Sneaky posting

5

Harry I heard your Game of Thrones arrangement and it's fantastic, Why didn't you posted it on your channel instead of Consonus's? and when will the tabs be available?

Hehe, that video was more in

Hehe, that video was more in support of his channel than mine. I will be doing a dynamic video for the arrangement next week - and I'm glad you liked it! Feel free to message me with these questions.