Login or Register to remove this ad.

The City Gates (The Elder Scrolls V: Skyrim) Guitar Tab

Submitted: Apr 18, 2017 by Bhael

4.333335
Average: 4.3 (3 votes)
Download | Listen
Game: The Elder Scrolls V: Skyrim
Composer(s): Jeremy Soule
Style: Alternate picking, Arrangement, Fingerstyle, Natural harmonics
Series: The Elder Scrolls

Click here for a video example.

AutoScroll: Slow | Medium | Fast
                               The City Gates
                                 TESV: Skyrim
                                 Jeremy Soule


     H.              H.              H.              H        Q     
E||---------------|---------------|---------------|----------------|
B||---------------|---------------|---------------|-----------0----|
G||---------------|---------------|---------------|----------------|
D||---------------|---------------|---------------|--7-------------|
A||--4------------|--7------------|--4------------|--0-------------|
E||---------------|---------------|---------------|----------------|


  E.  S S E  S S E  S    E.  S S E  S S E  S    E.  S S E  S S E  S  
----------------------|--0-------------------|----------------------|
--2-------------------|--0-------------------|--2-------------------|
----------------------|------1-1-1--1-1-1--1-|----------------------|
------2-2-2--2-2-2--2-|----------------------|--4---4-4-4--4-4-4--4-|
--0-------------------|----------------------|----------------------|
----------------------|----------------------|----------------------|


  S E  S S E  S S E  S    E.  S S E  S S E  S    S E  S S E  S S E  S  
-----------------------|----------------------|-----------------------|
----------------0------|--2-------------------|--0--------------------|
--2--------------------|--2-------------------|----------------2------|
----4--4-4-4--4---4--4-|------2-2-2--2-2-2--2-|----2--2-2-2--2---2--2-|
-----------------------|--0-------------------|-----------------------|
-----------------------|----------------------|-----------------------|


  E.  S S E  S S E  S    E.  S S E  S Q       S E  S S E  S S E  S  
----------------------|--------------------|-----------------------|
----------------------|---------------0----|--2--------------------|
--2-------------------|--------------------|--2--------------------|
--4---4-4-4--4-4-4--4-|------4-4-4--4------|----2--2-2-2--2-2-2--2-|
--4-------------------|--------------------|--0--------------------|
----------------------|--2-----------------|-----------------------|


  S E  S S E  S S E  S    E.  S S E  S S E  S    S E  S S E  S E  E   
--0--------------------|--2-------------------|----------------------|
--0--------------------|--2-------------------|--2-------------0-----|
----1--1-1-1--1-1-1--1-|----------------------|----------------------|
-----------------------|--4---4-4-4--4-4-4--4-|----4--4-4-4--4----4--|
-----------------------|----------------------|----------------------|
-----------------------|----------------------|----------------------|


  E  S S S S E  E  S S    E  S S S S E  E  S S    E  S S S S E  E  S S  
-----------------------|--0--------------------|-----------------------|
--2--------------------|--0--------------------|--2--------------------|
---------2-2-----------|---------1-1-----------|---------2-2-----------|
-----2-2-----2-----2-2-|-----2-2-----2-----2-2-|-----4-4-----4-----4-4-|
--0-------------0------|-----------------------|-----------------------|
-----------------------|--0-------------0------|--2-------------2------|


  E  S S S S E  E  E     E  S S S S E  E  S S    E  S S S S E  Q     
----------------------|-----------------------|---------------------|
----------------0-----|--2--------------------|--0------------------|
--2-------------------|---------2-2-----------|---------1-1----2----|
-----4-4-4-4-4-----4--|-----2-2-----2-----2-2-|-----2-2-----2-------|
----------------------|--0-------------0------|---------------------|
--2-------------------|-----------------------|--0------------------|


  E.  S S S S E  E  S    E  S E  S E  E  S S    E  S S S S E  E  S S  
--------0---0----0--0-|-------0--0----0----0-|-------0---0----0----0-|
------0---0---0--0--0-|-----0-0--0-0--0--0---|--2-------------2------|
--2-------------------|----------------------|-------------------2---|
--4-------------------|----------------------|-----2---2---2-----2---|
----------------------|----------------------|--0--------------------|
--2-------------------|--2-------------------|-----------------------|


  E  S S S S E  E  S S    E  S S S S E  E  S S    E  S S S S E  E  E   
-------0---0----0------|-------0---0----0----0-|-------0---0----0-----|
--0-------------0----0-|-----0---0---0--0----0-|----------------0-----|
----------------1------|--2----------------2---|-----2---2---2--2-----|
-----2---2---2-----2---|--0--------------------|--4----------------4--|
-----------------------|-----------------------|--5-------------------|
--0--------------------|--2--------------------|----------------------|


  E  S S E  S S E  S S    E  S S E  S S E  E     Q    E  E  E  E   
-------0------0------0-|-------0------0-------|-------------------|
--2--------------------|--0-------------------|----------------2--|
---------2------4------|---------2------------|-------------2-----|
-----2------2------2---|----------------4--2--|--4-------4--------|
--0--------------------|-----2------2---------|-------4-----------|
-----------------------|--0-------------------|--2----------------|


  H        Q         E  E  E  E  E  E     E  E  H           Q    E.  S    
--2--------0----||---2-----4-----2-----|--0--------------|-----------0--||
----------------||---------------------|--------2--------|--0----2------||
----------------||*-----2-----2-----2--|-----4-----------|--4----------*||
----------------||*--4-----------------|-----------------|--4----------*||
----------------||---------------------|-----------------|--------------||
----------------||---------------------|-----------------|--------------||


  ^                                                         ^      
  Q    E.  S    E  E  E  E  E  E     E  E  H           Q    E.  S  
-------------|--------4-----------|--0--------------|-----------0-|
--0--------0-|--7-----------7-----|--------2--------|--0----2-----|
-------------|-----6-----6-----6--|-----4-----------|-------1-----|
-------4-----|--4-----------------|-----------------|--2----------|
--6----------|--------------------|-----------------|-------------|
--7----------|--------------------|-----------------|-------------|


                                              ^                             
  E  E  E  E  E  E     E  E  H        Q       H.              H.            
--2-----4-----2-----|--0-------------------|---------------|---------------|
--------------------|--------2--------0----|---------------|---------------|
-----2-----2-----2--|-----4----------------|---------------|---------------|
--4-----------------|----------------------|--9------------|---------------|
--------------------|----------------------|--6------------|--L------------|
--------------------|----------------------|--7------------|--L------------|


                      ^                                      
  E  E  E  E  Q       E  E  E  E  E  E     E  E  E  E  Q     
-------------------|--------------------|-------------------|
--------------2----|--2-----------2-----|--------4-----5----|
--------2----------|--2-----4-----------|--6----------------|
--2--------2-------|-----2-----2-----2--|-----------6-------|
-----0-------------|--0-----------------|-----4-------------|
-------------------|--------------------|-------------------|


                                           ^                 
  E  E  E  E  Q       E  E  E  E  E  E     E  E  E  E  Q     
-------------------|--------------------|-------------------|
--5--------4-------|--------------2-----|--2-----------2----|
--------6-----4----|--------2-----------|--2-----4----------|
-----6-------------|--2--------2-----2--|-----2-----2-------|
--4----------------|-----0--------------|--0----------------|
-------------------|--------------------|-------------------|


  E  E  E  E  Q       E  E  E  E  E.  S    E  E  E  E  Q     
-------------------|--------------------|--------4-----5----|
--------4-----5----|--5--------7--4---5-|--7----------------|
--6----------------|--------------------|-----6-----6-------|
-----------6-------|--------6-----------|--4----------------|
-----4-------------|-----4--------------|-------------------|
-------------------|--------------------|-------------------|


  E  E  E  E  E  S S    E  E  E  E  Q       E  E  E  E  Q     
--5------------------|--------------4----|--4----------------|
-------------------4-|--5-----7----------|--------------5----|
--------6--------6---|-------------------|--------6----------|
--4--4-----4--4------|-----------6-------|-----6-----6-------|
---------------------|-----4-------------|--4----------------|
---------------------|-------------------|-------------------|


  E  E  E  E  Q       E  S S  E  E  E  E     E  E  E  S  S E  E   
--2-----4-----5----|--5----7p-5-----4-----|--4--------4h-5-4-----|
-------------------|-------------------7--|-------------------7--|
-----2-----2-------|----------------------|--------6-------------|
--4----------------|-------------4--------|-----6----------------|
-------------------|-----0----------------|--4-------------------|
-------------------|----------------------|----------------------|


  E  E  E  E  Q       E  E  E  E  E  E     E  E  E  E  E  E   
--4-----------0----|--2-----------------|--------------0-----|
-------------------|-----------4--------|-----------------4--|
--------6----------|--------4-----4-----|--------4-----------|
-----6-----6-------|-----4-----------4--|-----4-----4--------|
--4----------------|--2-----------------|--2-----------------|
-------------------|--------------------|--------------------|


  E  E  E  E  E  S S     E  E  E  E  Q       E  E  E  E  E  E   
--0-------------------|--------------0----|--2-----------------|
-----------2-------4h-|--2----------------|--------3--3--------|
--------2-----2-------|--------2----------|-----2--------2-----|
-----2-----------2----|-----2-----2-------|--0--------------0--|
--0-------------------|-------------------|--------------------|
----------------------|-------------------|--------------------|


  E  E  E  E  Q       Q    E  E  E  E     H        Q     
--0----------------|-------------------|--2-------------|
--------------3----|--2-------------2--|----------------|
--------2----------|-------------2-----|-----------6----|
-----0-----0-------|----------4--------|----------------|
-------------------|-------------------|----------------|
-------------------|-------2-----------|----------------|


               |--3--|                                     |--3--|  
  Q    Q    E  S  S  S    E  E  Q    Q       E  E  Q    E  S  S  S  
-----------------------|------------------|------------------------|
------------6--6h-7p-6-|------------------|-------------6--6h-7p-6-|
--8--------------------|--8----------6----|--8-----8---------------|
-----------------------|--------9---------|--------9---------------|
-----------------------|------------------|------------------------|
-------7---------------|-----7------------|-----7------------------|


  H        Q       E.  S S E  S S E  S    E.  S S E  S S E  S  
----------------|--2-------------------|--4-------------------|
-----------2----|----------------------|----------------------|
--8-------------|------2-2-2--2-2-2--2-|------4-4-4--4-4-4--4-|
--9-------------|--4-------------------|----------------------|
----------------|----------------------|----------------------|
----------------|----------------------|--0-------------------|


  E.  S S E  S S S E     E.  S S E  S S E  S    E.  S S E  S S E  S  
--2----------------0--|----------------------|--2-------------------|
----------------------|--2-------------------|----------------------|
------2-2-2--2-2-2----|------2-2-2--2-2-2--2-|----------------------|
--4-------------------|--4-------------------|------4-4-4--4-4-4--4-|
----------------------|----------------------|----------------------|
----------------------|----------------------|--2-------------------|


  E.  S S E  S Q       E.  S S E  S S E  S    S E  S S E  S Q     
--0-----------------|----------------------|---------------------|
---------------0----|--2-------------------|----------------0----|
--------------------|----------------------|--2------------------|
------2-2-2--2------|------4-4-4--4-4-4--4-|----4--4-4-4--4------|
--------------------|----------------------|---------------------|
--0-----------------|--2-------------------|--2------------------|


  E  S S S S E  E  S S    E  S S S S E  E  S S    E  S S S S E  E  S S  
-----------------------|--0--------------------|-----------------------|
--2--------------------|--0--0----------0------|--2--------------------|
--2----2-2---2--2------|-----1-1-1-1-1--1--1-1-|--2--2-2-2-2-2--2--2---|
-----2-2-2-2-2--2--2-2-|-----2-2-2---2--2--2-2-|-----4-4-4-4-4--4--4-4-|
--0--------------------|-----------------------|-----------------------|
-----------------------|--0--------------------|--2--------------------|


                ^                       ^                       ^     
  E  S S S S E  E  S S    E  S S S S E  E  S S    E  S S S S E  Q     
-------2---2----0------|-------0---0----0----0-|-------0---0----0----|
---------2------0----0-|--2-------------2------|--0-------------0----|
--2----------------2---|-----2---2---2-----2---|---------1-----------|
-----4-----------------|-----------------------|-----2---2---2-------|
-----------------------|--0--------------------|---------------------|
-------------2---------|-----------------------|--0------------------|


                                                                ^       
  E  S S S S E  E  S S    E  S S S S E  E  S S    E  S S S S E  E  S S  
-------0---0----0----0-|-------0---0----0----0-|-------0---0----0----0-|
----------------0------|-------0---0----0------|--2-------------2------|
--2--------------------|-----------------------|-----2---2---2-----2---|
-----4---4---4-----4---|-----4---4---------4---|-----2---2---------2---|
-----------------------|-----------------------|--0--------------------|
--2--------------------|--2----------2---------|-----------------------|


                ^                      ^                       ^       
  E  S S S S E  E  E     E  S S S S E  E  S S    E  S S S S E  E  S S  
-------0---0----0-----|-------0---0----0----0-|-------0---0----0----0-|
--0-------------0-----|-----0-------0--0------|-------0--------0------|
---------1---------1--|--2----------------2---|-----2---2---2-----2---|
-----2---2---2-----2--|--0------0---------0---|--4--------------------|
----------------------|-----------------------|--5--------------------|
--0-------------------|--2--------------------|-----------------------|


  E  S S E  S S E  E     E  S S E  S S E  E     E  S S S S E  E  S S  
-------0------0-------|-------0------0-------|-------0---0----0----0-|
--2-------------0-----|--0----------------0--|-----0---0---0--0--0---|
---------2------------|---------2------2-----|--2-------------2--2---|
-----2------2------2--|-----2------2---------|----------------4------|
--0-------------------|----------------------|-----------------------|
----------------------|--0-------------------|--2--------------------|


  E  S S S S E  E  S S    E  S S S S E  S S E  E  S S  
-------0---0----0----0-|--2----4---2-2----2---------2-|
-----0---0---0--0--0---|-----2---2---2--2---2--2------|
----------------4--4---|-----2---2---2--2---2--2--2---|
-----------------------|--4---------------------------|
-----------------------|------------------------------|
--2--------------------|------------------------------|


  S S S S S S S S S S S S S S S S    E  S S S S E  S S E  E  S S  
--------0---0-------0---0-------0-|--2----4---2-2----2---------2-|
--0-2---------0-2---------0-2-----|-----2---2---2--2---2--2------|
--4---4---4---4---4---4---4---4---|-----2---2---2--2---2--2--2---|
----------------------------------|--4---------------------------|
----------------------------------|------------------------------|
----------------------------------|------------------------------|


  S S S Q    E  S S S S S S S    E  S S S S E  S S E  E  S S  
--------0-------------------0-|--2----4---2-2----2---------2-|
--0-2--------0----------------|-----2---2---2--2---2--2------|
--4---4---------------2-4-4---|-----2---2---2--2---2--2--2---|
----------------4-4-4---------|--4---------------------------|
-------------2----------------|------------------------------|
------------------------------|------------------------------|


  S S S S S S S S S S S S S S S S    E  S S S S E  S S E  E  S S  
--------0---0-------0---0-------0-|--2----4---2-2----2---------2-|
--0-2---------0-2---------0-2-----|-----2---2---2--2---2--2------|
--4---4---4---4---4---4---4---4---|-----2---2---2--2---2--2--2---|
----------------------------------|--4---------------------------|
----------------------------------|------------------------------|
----------------------------------|------------------------------|


  S S S E.  E  S S E  Q       E  S S E  E  S S E  E  S S  
--------0---0----0---------|-------0---------0---------0-|
--0-2-------2------2--0----|--0-------------------0------|
--4---4-----4--4-----------|--4--4---4--4--4---4--4--4---|
---------------------------|--4-------------------4------|
---------------------------|--2--------------------------|
---------------------------|-----------------------------|


                                  ^                                
  E  S S E  E  S S E  E  S S      E  S E.  E  S S E  S E.  E  S S  
-------0---------0---------0-||---0----0--------0---------------0-|
--0-------------------0------||---0--------------------0----------|
--4--4---4--4--4---4--4--4---||*--6--------6--6---6--------6------|
--4-------------------4------||*--7--7-----7--7---7--------7--7---|
--2--------------------------||---0------------------0------------|
-----------------------------||-----------------------------------|


  ^                                     ^            ^             
  E  S E.  E  S S E  S E.  E  S S  4x   E.  E.  Q    E.  E.  Q     
-------0--------0------4--------0--||-------0---------------------|
------------------7--------5-------||--------------------0--------|
--6--------6--6---6--------6--6---*||*--6-------6----6-------6----|
--7--------7--7------6------------*||*--7------------7------------|
-----0-----------------------------||---0-------------------------|
-----------------------------------||-----------------------------|


               ^                                         
  E.  E.  Q    E.  E.  Q     4x  W                Q      
------0------------4---------||------------------------||
---------------7-------5-----||--L----------------L----||
--6-------6----6------------*||------------------------||
--7-------------------------*||------------------------||
--0--------------------------||------------------------||
-----------------------------||------------------------||




Duration Legend
---------------
W - whole
H - half
Q - quarter
E - 8th
S - 16th
T - 32nd
X - 64th
. - note dotted
|-n-|  - n-tuplets 
Login or Register to remove this ad.

1 comment on The City Gates

Somebody kindly pointed out

Somebody kindly pointed out the download button links to my old arrangement of this tune - this is now resolved and it should link to the new version. Apologies to anyone who had previously tried to download!