Ads

Peaceful Waters (The Elder Scrolls III: Morrowind) Guitar Tab

Submitted: Aug 31, 2016 by IkuinenOnni

5
Average: 5 (1 vote)
Download | Listen
Game: The Elder Scrolls III: Morrowind
Composer(s): Jeremy Soule
Style: Arrangement, Artificial harmonics, Fingerstyle

AutoScroll: Slow | Medium | Fast
                                Peaceful Waters                                 


Steel Guitar
       Q      Q      Q      E    E       Q      E    E    H         
E||--<>0----<>5----<>0--------------|------------------------------|
B||-----------------------<>1--<>0--|---------<>1--<>0-------------|
G||---------------------------------|--<>2--------------<>2--------|
D||------------------2--------------|----0-------------------------|
A||----0----------------------------|------------------------------|
E||---------------------------------|------------------------------|


    Q      Q      Q      E    E       Q      E    E    H         
--<>0----<>5----<>0--------------|------------------------------|
-----------------------<>1--<>0--|---------<>0------------------|
---------------------------------|--<>2---------<>0--<>2--------|
------------------2--------------|----3-------------------------|
----0----------------------------|---------------------3--------|
---------------------------------|------------------------------|


    Q      Q      Q      E    E       Q      E    E    H         
--<>0----<>5----<>0--------------|------------------------------|
-----------------------<>1--<>0--|---------<>1--<>0-------------|
---------------------------------|--<>2--------------<>2--------|
------------------2--------------|----0-------------------------|
----0----------------------------|------------------------------|
---------------------------------|------------------------------|


    E    E    Q      Q      E    E       Q    Q    E  E   Q     
------------------------------------|--------------------------|
--<>1--<>0---------------------<>0--|--------------------------|
------------<>2----<>0----<>2-------|--<>2---------------------|
----3-------------------------------|---------2----------------|
------------------------------------|----0---------0-----------|
------------------------------------|-----------------1p--0----|


  Q    Q    Q    E  E     E  E  E  E  Q    E  E     E  E  E  E  Q    E  E   
-----------------------|-------------------------|-------------------------|
-----------------------|-------------------------|-------------------------|
-------0---------------|-------------------------|-------------------------|
--2---------2----------|-------------------------|--3----------------2--0--|
--3--------------3--2--|--0-----0--2--3----2--3--|--------------0----------|
-----------------3-----|-----0-------------------|-----0--1--3-------------|


  E  E  Q    E  E  Q       Q    Q    Q    E  E     H        Q    E   E   
------------------------|-----------------------|--0-------------0h--3--|
------------------------|-------1---------1--3--|--1-------------1------|
------------------------|-------2---------------|--0-------------0------|
--2----------2----------|--2---------2----------|--2--------4-----------|
--0-----0----3----------|--3---------2----2-----|-----------3-----------|
-----0-------3--0--3----|------------3----------|-----------------------|


  H        Q    Q       E  E  E  E  H             Q      Q      Q      E    E   
--2-------------0----|--0--------------------|--<>0----<>5----<>0--------------|
--0--------3---------|--0--------------------|-----------------------<>1--<>0--|
--2------------------|--1-----------1--------|---------------------------------|
-----------4---------|--2-----2--4--2--------|------------------2--------------|
--0------------------|-----2-----------------|----0----------------------------|
---------------------|-----------------------|---------------------------------|


    Q      E    E    H             Q      Q      Q      E    E   
------------------------------|--<>0----<>5----<>0--------------|
---------<>1--<>0-------------|-----------------------<>1--<>0--|
--<>2--------------<>2--------|---------------------------------|
----0-------------------------|------------------2--------------|
------------------------------|----0----------------------------|
------------------------------|---------------------------------|


    Q      E    E    H             Q      Q      Q      E    E   
------------------------------|--<>0----<>5----<>0--------------|
---------<>0------------------|-----------------------<>1--<>0--|
--<>2---------<>0--<>2--------|---------------------------------|
----3-------------------------|------------------2--------------|
---------------------3--------|----0----------------------------|
------------------------------|---------------------------------|


    Q      E    E    H             E    E    Q      Q      E    E   
------------------------------|------------------------------------|
---------<>1--<>0-------------|--<>1--<>0---------------------<>0--|
--<>2--------------<>2--------|------------<>2----<>0----<>2-------|
----0-------------------------|----3-------------------------------|
------------------------------|------------------------------------|
------------------------------|------------------------------------|


    Q    Q    Q    Q       W                  
------------------------|--8----------------||
------------------------|--5----------------||
--<>2-------------------|--5----------------||
---------2----0---------|-------------------||
----0--------------2----|--0----------------||
------------------------|-------------------||




Duration Legend
---------------
W - whole
H - half
Q - quarter
E - 8th
S - 16th
T - 32nd
X - 64th
. - note dotted
|-n-|  - n-tuplets


Tablature Legend
----------------
L - tied note
x - dead note
g - grace note
(n) - ghost note
> - accentuded note
NH - natural harmonic
AH - artificial harmonic
TH - tapped harmonic
SH - semi harmonic
PH - pitch harmonic
h - hammer on
p - pull off
b - bend
br - bendRelease
pb - preBend
pbr - preBendRelease
brb - bendReleaseBend
\n/ - tremolo bar dip
\n - tremolo bar dive
-/n - tremolo bar Release up
/n\ - tremolo bar inverted dip
/n - tremolo bar return
-\n - tremolo bar Release down
S - shift slide
s - legato slide
/ -  slide into from below or out of upwards
\ -  slide into from above or out of downwards
~ - vibrato
W - wide vibrato
tr - trill
TP - tremolo picking
T - tapping
S - slap
P - pop
< - fade in
^ - brush up
v - brush down
Login or Register to remove this ad.

2 comments on Peaceful Waters

Are the <> supposed to be

Are the <> supposed to be artificial / natural harmonics? Your legend doesn't have this symbol

They are artificial (or pinch

They are artificial (or pinch alternatively), strange that guitar pro didn't put that symbol to the legend.