For Pete's Sake (Earthworm Jim) Guitar Tab

Submitted: Oct 16, 2009 by RexLeRouge (Last updated: Oct 16, 2009)

5
Average: 5 (1 vote)
Download | Listen
Game: Earthworm Jim
Composer(s): Tommy Tallarico, Mark Miller
Style: Alternate picking, Sweep picking, Transcription

AutoScroll: Slow | Medium | Fast
                             Earthworm Jim - For Pete's Sake
                               Composed by Tommy Tallarico
                                  Tabbed by RexLeRouge



Melody
     W                   W                   W                 
E||-------------------|-------------------|-------------------|
B||-------------------|-------------------|-------------------|
G||-------------------|-------------------|-------------------|
D||-------------------|-------------------|-------------------|
A||-------------------|-------------------|-------------------|
E||-------------------|-------------------|-------------------|


  W                   W                   W                   W                 
-------------------|-------------------|-------------------|-------------------|
-------------------|-------------------|-------------------|-------------------|
-------------------|-------------------|-------------------|-------------------|
-------------------|-------------------|-------------------|-------------------|
-------------------|-------------------|-------------------|-------------------|
-------------------|-------------------|-------------------|-------------------|


  E  S S S S S S S S S E  S S S    E  S S S S S S S S S S S S S S  
--------------------------------|---------------------------------|
--------------------------------|-------------------------------6-|
--5--5-----5---5---5------------|-----5-----5---5---5---5---5-8---|
-------5-8-------------8--5-----|-------5-8---8-------------------|
----------------------------9-8-|---------------------------------|
--------------------------------|---------------------------------|


  E  S S S S S S S S S E  S S S    E  S S S S S S S S S S S S S S  
--------------------------------|---------------------------------|
--------------------------------|-------------------------------6-|
--5--5-----5---5---5------------|-----5-----5---5---5---5---5-8---|
-------5-8-------------8--5-----|-------5-8---8-------------------|
----------------------------9-8-|---------------------------------|
--------------------------------|---------------------------------|


  |--3--|  |-3-| |-3-|  |--3--| |-3-| |-3-| |-3-| |-3-|  
  S  S  S  S S S S S S  S  S  S S S S S S S S S S S S S  
-----------------8--------------------------7-----------|
---------------8---8----------------------7---7---------|
-------------8-------8------------------8-------8-------|
----------10-----------10-------------9-----------9-----|
-------10-----------------10------6-9---------------9-6-|
--8-11-----------------------11-7-----------------------|


  |-3-| |-3-| |-3-| |-3-| |-3-| |-3-| |-3-| |-3-|  
  S S S S S S S S S S S S S S S S S S S S S S S S  
--------------6-----------------------5-----------|
------------6---6-------------------5---5---------|
----------7-------7---------------6-------6-------|
--------8-----------8-----------7-----------7-----|
----5-8---------------8-5---4-7---------------7-4-|
--6-----------------------5-----------------------|


  |-3-| |-3-| |-3-| |-3-| |-3-| |-3-| |-3-| |-3-|  
  S S S S S S S S S S S S S S S S S S S S S S S S  
--------------4-----------------------3-----------|
------------4---4-------------------3---3---------|
----------5-------5---------------4-------4-------|
--------6-----------6-----------5-----------5-----|
----3-6---------------6-3---2-5---------------5-2-|
--4-----------------------3-----------------------|


  |-3-| |-3-| |-3-| |-3-| |-3-| |-3-| |-3-| |-3-|  
  S S S S S S S S S S S S S S S S S S S S S S S S  
--------------2-----------------------1-----------|
------------2---2-------------------1---1---------|
----------3-------3---------------2-------2-------|
--------4-----------4-----------3-----------3-----|
----1-4---------------4-1---0-3---------------3-0-|
--2-----------------------1-----------------------|


  S  S S  S  S S  S S  E   E  S  S S  S  
--8-------------------------------------|
----11-8--------------------------------|
---------11-10-8----8-----10--8----8----|
-----------------10---10--------10---10-|
----------------------------------------|
----------------------------------------|


  S  S S  S S S  S E   S  S S S  S S S    S S S S  S S E.  S S S  S S  S  S  
---------------------------------------|----8-8------8-----8-8------8-11-13-|
---------------------------------------|--------8-11-----------8-11---------|
---------------------------------------|------------------------------------|
--L----8-------------------------------|------------------------------------|
----10---10-9-8----8-----10-9-8--------|------------------------------------|
----------------11----11--------11-8-8-|------------------------------------|


  S S S S  S S S  S S S S  S S  S S  S    W                   W                 
----8-8------8-------------------------|-------------------|-------------------|
--------8-11-----11---8----------------|-------------------|-------------------|
--------------------------11---10-8----|-------------------|-------------------|
------------------------------------10-|-------------------|-------------------|
---------------------------------------|-------------------|-------------------|
---------------------------------------|-------------------|-------------------|


  E  E   E  S  S  E  E   S S  S  S     E  E   E  S  S  E  E   S S  S  S  
--8--8---------------8-------------|------8---------------8-------------|
--------11--8-----------11-8-------|---------11--8-----------11-8-------|
--------------11-------------11-10-|---------------11-------------11-10-|
-----------------10----------------|--10--------------10----------------|
-----------------------------------|------------------------------------|
-----------------------------------|------------------------------------|


   E  E   E  S  S  E  E   S S  S  S     E  E   E  S  S  S S  S S  S S S  S  
------8---------------8-------------|------8-------------------------------|
---------11--8-----------11-8-------|---------11--8------------------------|
------------------------------11-10-|---------------11-10-8----------------|
--10-----------10-10----------------|--10-------------------10-8-----------|
------------------------------------|----------------------------10-9-8----|
------------------------------------|-----------------------------------11-|


  S S S S  S S E.  S S S  S S  S  S    S S S S  S S E.   S S  S  S S  S  S  
----8-8------8-----8-8------8-11-13-|----8-8------8------------------------|
--------8-11-----------8-11---------|--------8-11-------11-8---------------|
------------------------------------|------------------------11-10-8-------|
------------------------------------|--------------------------------10-10-|
------------------------------------|--------------------------------------|
--8---------------------------------|--------------------------------------|


  S S S S S S E.  S S S S S S S    S S S S S S S S S S S S S S S S  
--------------------------------|----------------------------------|
------------------------------6-|----------------------------------|
----5-5-----5-----5-5-----5-8---|----5-5-----5---------------------|
--------5-8-----------5-8-------|--------5-8-----8---5-------------|
--------------------------------|------------------------9---8-6---|
--------------------------------|--------------------------------8-|


  S S S S S S E.  S S S S S S S    S S S S S S S S S S S S S S S S  
--------------------------------|------------------------------6-8-|
------------------------------6-|--------------------6---7---8-----|
----5-5-----5-----5-5-----5-8---|----5-5-----5---8-----------------|
--------5-8-----------5-8-------|--------5-8-----------------------|
--------------------------------|----------------------------------|
--------------------------------|----------------------------------|


  W                  
-------------------||
-------------------||
-------------------||
-------------------||
-------------------||
-------------------||



Duration Legend
---------------
W - whole
H - half
Q - quarter
E - 8th
S - 16th
. - note dotted
|-n-|  - n-tuplets


Tablature Legend
----------------
L - tied note
Login or Register to remove this ad.

1 comment on For Pete's Sake

Wow...

5

This is cool...too bad i can't play it up to speed, that midi sounds pretty awesome though. Damn you, fingers and mind!