Ads

Home Sweet Home (Earthbound) Guitar Tab

Submitted: Aug 19, 2011 by Lemoncobbler

5
Average: 5 (2 votes)
Download | Listen
Game: Earthbound
Composer(s): Hirokazu Tanaka, Keiichi Suzuki
Style: Arrangement, Fingerstyle

AutoScroll: Slow | Medium | Fast
Track 1
     Q    Q    Q    Q       H        Q    Q       Q    Q    Q    Q     
E||-------0----3----2----|--L--------3----L----|-------0----3----2----|
B||-----------------1----|--L--------5---------|-----------------1----|
G||--5---------0----2----|-----------5---------|--5---------0----2----|
D||--5-------------------|---------------------|--5-------------------|
A||--3----3--------------|--L-------------4----|--3----3--------------|
D||------------5---------|---------------------|----------------------|


  W                   Q    Q    Q    Q       H        Q    Q     
--L----------------|-------0----3----2----|--L--------3---------|
--L----------------|--1---------3----0----|--L--------5----2----|
--L----------------|--2----L----0---------|-----------5---------|
-------------------|----------------------|---------------------|
-------------------|--3-------------------|----------------4----|
-------------------|------------5---------|---------------------|


  Q    Q    Q    Q       H        Q    Q         Q    Q    Q    Q     
-------0----3----2----|--L------------------||-----------------------|
--1---------3----0----|--L--------0---------||---0----0----3----3----|
--2---------0---------|----------------2----||*------------0---------|
-------2---------4----|--L------------------||*----------------------|
--3-------------------|-----------2----0----||-----------------------|
------------5---------|---------------------||---5----L--------------|


  Q    Q    Q    Q       Q    Q    Q    Q       Q    Q    Q    Q     
--5---------2----3----|--L--------------0----|----------------------|
------------2----5----|------------0---------|------------0----3----|
-------2--------------|-------0--------------|-------0--------------|
--4-------------------|--2-------------------|----------------------|
----------------------|----------------------|----------------------|
--4-------------------|--2--------------2----|--0-------------------|


  Q    Q    Q    Q       Q    Q    Q    Q       Q    Q    Q    Q     
--0----0----3----3----|--7---------3---------|------------1---------|
------------5---------|-----------------3----|-------3----1---------|
----------------------|-------7--------------|--3--------------5----|
----------------------|-----------------4----|--3--------------3----|
--3-------------------|-----------------2----|--1-------------------|
----------------------|--9-------------------|----------------------|


  Q    Q    Q    Q       Q    Q    Q    Q       Q    Q    Q    Q     
----------------------|----------------------|--5---------2----3----|
-------3---------3----|--0----0----3----3----|------------2----5----|
--2---------4---------|------------0---------|-------2--------------|
------------0---------|----------------------|--4-------------------|
--0-------------------|----------------------|----------------------|
----------------------|--5----L--------------|--4-------------------|


  Q    Q    Q    Q       Q    Q    Q    Q       Q    Q    Q    Q     
--L--------------0----|----------------------|--0----0----3----3----|
------------0---------|------------0----3----|------------5---------|
-------0--------------|-------0--------------|----------------------|
--2-------------------|----------------------|----------------------|
----------------------|----------------------|--3-------------------|
--2--------------2----|--0-------------------|----------------------|


  Q    Q    Q    Q       Q    Q    Q    Q       Q    Q    Q    Q     
--7---------3---------|------------1---------|----------------------|
-----------------3----|-------3----1---------|-------3---------3----|
-------7--------------|--3--------------5----|--2---------4---------|
-----------------4----|--3--------------3----|------------0---------|
-----------------2----|--1-------------------|--0-------------------|
--9-------------------|----------------------|----------------------|


  Q    Q    Q    Q       H        H           H        H         
----------------------|-----------0--------|--3--------7--------|
--0---------L---------|--0--------0--------|--3--------8--------|
-------2----0----2----|-----------0--------|--------------------|
--2-------------------|--1-----------------|--0-----------------|
----------------------|--------------------|--------------------|
----------------------|--------------------|--------------------|


   H        Q    Q       Q    Q    Q    Q       Q    Q    Q    Q     
--12-------------7----|--3----2----0----2----|--3----2----0----2----|
------------0---------|----------------------|--3-------------------|
----------------------|--0-------------------|--2-------------------|
----------------------|----------------------|--0-------------------|
--11------------------|--3-------------------|----------------------|
--11------------------|----------------------|----------------------|


  W                   W                   H        Q    Q     
--3----------------|--L----------------|---------------------|
--3----------------|--L----------------|--0--------0----3----|
--0----------------|-------------------|----------------0----|
-------------------|-------------------|--0--------L---------|
-------------------|-------------------|----------------3----|
--5----------------|-------------------|--5--------L---------|


  H        Q    Q       H        Q    Q       H        Q    Q     
---------------------|---------------------|---------------------|
--L--------1----L----|--0--------0----3----|--L--------1----L----|
--L------------------|----------------0----|--L------------------|
---------------------|--0--------L---------|----------------0----|
--L--------2----3----|----------------3----|--L--------2---------|
---------------------|--5--------L---------|---------------------|


  Q    Q    Q    Q       H        Q    Q       Q    Q    Q    Q     
----------------------|---------------------|----------------------|
--0----0----0----3----|--L--------1----L----|--0----0----0----3----|
-----------------0----|--L------------------|-----------------0----|
--0---------L---------|---------------------|--0---------L---------|
-----------------3----|--L--------2----3----|-----------------3----|
--5---------L---------|---------------------|--5---------L---------|


  H        Q    Q       
----------------------||
--L--------1----L-----||
--L------------------*||
----------------0----*||
--L--------2----------||
----------------------||
Login or Register to remove this ad.

1 comment on Home Sweet Home

this is awesome ^_^

this is awesome ^_^