Fourside (Earthbound) Guitar Tab

Submitted: Jun 01, 2009 by BooDoo

4
Average: 4 (3 votes)
Download | Listen
Game: Earthbound
Composer(s): Hirokazu Tanaka, Keiichi Suzuki
Style: Transcription

AutoScroll: Slow | Medium | Fast
	"The Metropolis of Fourside"
	from Mother 2 / Earthbound

Composed by: HIP Tanaka
Tab by: Joel McCoy (BooDoo)

Tempo: Q ~= 86
Standard tuning


                                   Fourside                                     


                                                                        Mother 2
Lead



     Q.     Q.     Q       Q.     Q.     Q       Q.     Q.     Q     
E||----------------0----|---------0-----------|----------------0----|
B||--0------3-----------|----------------3----|--0------3-----------|
G||---------------------|--2------------------|---------------------|
D||---------------------|---------------------|---------------------|
A||---------------------|---------------------|---------------------|
E||---------------------|---------------------|---------------------|


  Q.     H        E     H        S E  S E  E       Q    Q    Q    E  E   
--3------------------|------------------------||------------------------|
---------0--------L--|-------------3--3-3-----||------------------0--1--|
---------------------|------------------------||*-------0----2----------|
---------------------|------------------------||*--0--------------------|
---------------------|------------------------||------------------------|
---------------------|------------------------||------------------------|


  W                   E  E  Q    Q    Q       H.           E  E   
-------------------|-------------0----2----|---------------------|
--3----------------|--------0--------------|--3------------L--0--|
-------------------|--0--0-----------------|---------------------|
-------------------|-----------------------|---------------------|
-------------------|-----------------------|---------------------|
-------------------|-----------------------|---------------------|


  E  E  E  E  Q    E  E     E  E  E  E  Q    E  E   
-------------------------|-------------------------|
--1--0-------------0--1--|--3--1--0--3-------------|
--------2--0--2----------|--------------1----2--4--|
-------------------------|-------------------------|
-------------------------|-------------------------|
-------------------------|-------------------------|


                   |--3--|                                            
  E  E  E  E  Q    E  E  E     Q    H.              W                 
----------------------------|--------------------|-------------------|
--1--0----------------------|--------------------|-------------------|
--------2--0----------------|-------0------------|--L----------------|
--------------4----4--5--7--|--7-----------------|-------------------|
----------------------------|--------------------|-------------------|
----------------------------|--------------------|-------------------|


  Q    H        S S S S    E.  H.           S    Q    Q    Q    E  E   
------------------------|---------------------|-----------------------|
------------------------|--0------------------|-----------------0--1--|
--L---------------0---0-|------0--------------|-------0----2----------|
-------7--------7---7---|---------------------|--0--------------------|
------------------------|---------------------|-----------------------|
------------------------|---------------------|-----------------------|


  W                   E  E  Q    Q    Q       H        Q.     E   
-------------------|-------------0----2----|---------------------|
--3----------------|--------0--------------|--3--------L------0--|
-------------------|--0--0-----------------|---------------------|
-------------------|-----------------------|---------------------|
-------------------|-----------------------|---------------------|
-------------------|-----------------------|---------------------|


  E  E  E  E  Q    E  E     E  E  E  E  Q    E  E   
-------------------------|-------------------------|
--1--0-------------0--1--|--3--1--0--3-------------|
--------2--0--2----------|--------------1----2--4--|
-------------------------|-------------------------|
-------------------------|-------------------------|
-------------------------|-------------------------|


                   |--3--|                                             
  E  E  E  E  Q    E  E  E     Q    Q    H           W                 
----------------------------|---------------------|-------------------|
--1--0----------------------|---------------------|-------------------|
--------2--0----------------|-------0----L--------|-------------------|
--------------4----4--5--7--|--7------------------|-------------------|
----------------------------|---------------------|-------------------|
----------------------------|---------------------|-------------------|


  Q    Q    Q    E  E     Q    H.              Q    Q    E  E  E  E   
-----------------------|--------------------|------------0--0--------|
--3----0----2----3--5--|--3----0------------|--3----0----------3--2--|
-----------------------|--------------------|------------------------|
-----------------------|--------------------|------------------------|
-----------------------|--------------------|------------------------|
-----------------------|--------------------|------------------------|


  H        H           Q    Q    E  E  E  E     Q    H.            
--------------------|--2------------0--2--3--|--2-----------------|
--0-----------------|-------3----5-----------|-------3------------|
--------------------|------------------------|--------------------|
--------------------|------------------------|--------------------|
--------------------|------------------------|--------------------|
--------------------|------------------------|--------------------|


  Q    Q    E  E  E  E     H        Q    Q       Q    Q    S E  E.  E   
--2------------0--2--4--|--5--------3---------|------------------------|
-------3----5-----------|----------------2----|------------------------|
------------------------|---------------------|-------0----0-0--0---0--|
------------------------|---------------------|------------------------|
------------------------|---------------------|------------------------|
------------------------|---------------------|------------------------|


  Q    Q    S E  E.  E     Q    Q    S E  E.  E     Q    Q    Q    Q       
-------3----3-3--3---3--|------------------------|-------3---------0-----||
------------------------|------------------------|------------3----------||
------------------------|-------0----0-0--0---0--|----------------------*||
------------------------|------------------------|----------------------*||
------------------------|------------------------|-----------------------||
------------------------|------------------------|-----------------------||




Duration Legend
---------------
W - whole
H - half
Q - quarter
E - 8th
S - 16th
T - 32nd
X - 64th
. - note dotted
|-n-|  - n-tuplets


Tablature Legend
----------------
L - tied note
Login or Register to remove this ad.