Ads

Buy Somethin' Will Ya? (Earthbound) Guitar Tab

Submitted: Aug 04, 2009 by JBryant (Last updated: Dec 30, 2009)

5
Average: 5 (12 votes)
Download | Listen
Game: Earthbound
Composer(s): Hirokazu Tanaka, Keiichi Suzuki
Style: Arrangement, Fingerstyle

AutoScroll: Slow | Medium | Fast
Buy Somethin' Will Ya?
Earthbound/ Mother 2
Arranged By Jbryant

It is very heavily swung, so I will just put eighth notes
and expect you to have heard it before.

  E  E  E  E  E  E  E  E    E  E  E  E  E  E  E  E
|-------3--------3--------|-3--------3--1--0--------|
|----0--------0--------0--|-------0-----------4--0--|
|-3--------3--------3-----|----3--------------------|
|-------------0-----------|-------------------------|
|-------------------------|-------------0-----2-----|
|-3-----------------------|-3-----3-----------------|

  Q      E  E  E  E  Q      Q     Q     E  E  Q
|-----------------0--8----|-6-----5--------0--------|
|-1------1--3--4----------|-------------4-----1-----|
|-------------------------|-------------------------|
|-------------------------|-------------------------|
|-3-----------------------|-3-----3-----2-----0-----|
|--------------3----------|-------------------------|

  E  E  E  E  E  E  E  E    E  E  E  E  E  E  E  E
|----7--6--7--5--3-----7--|-6--7--5--3-----5--3--5--|
|-------------------R-----|-------------------------|
|-------------------E-----|-------------------------|
|-------------0-----S-----|-------------------------|
|-------------------T-----|-------------0-----2-----|
|-3-----------------------|-3-----3-----------------|

  Q     Q     Q     Q       E  E  E  E  Q     Q
|-7-----8-----------------|-------------------------|
|-------------7-----8-----|-------------------------|
|-------------------------|-8--9--8--9--------------|
|-------------------------|-------------9-----10----|
|-3-----------------------|-------------------------|
|-------------------------|-------------------------|

  E  E  E  E  E  E  E  E    E  E  E  E  E  E  Q
|-------------------3-----|-1-----0-----------0-----|
|----------0--3--0--------|-------------3--4--------|
|-0-----3--------------0--|----0-----0--------------|
|----4--------0-----------|-------------0-----------|
|-------------------------|-------------------------|
|-3-----------------------|-3-----------------------|

  Q      E  E  E  E  Q      Q     Q     Q     Q
|-----------------0--8----|-6-----5-----3-----0-----|
|-1------1--3--4----------|-------------------------|
|-------------------------|-------------------------|
|-------------------------|-------------0-----2-----|
|-3-----------------------|-3-----3-----------------|
|--------------3----------|-------------------------|

  Q     Q     Q     Q       E  E  E  E  E  E  Q 
|-5-----5-----7-----5-----|-3--2--3--5-----3--0-----|
|-------------------------|-------------------------|
|-------------------------|-0-----0-----2-----2-----|
|-3-----3-----4-----4-----|-------------------------|
|-------------------------|-------------------------|
|-------------------------|-------------------------|

  Q     Q     E  E  Q       Q     Q     Q     Q 
|-------------3-----------|-------------------------|
|-3-----3--------4--3-----|-1-----------1-----R-----|
|-------------0-----0-----|-------0-----------E-----|
|-0-----0-----------------|-------------------S-----|
|-------------------------|-3-----------3-----T-----|
|-------------------------|-------3-----------------|
Login or Register to remove this ad.

3 comments on Buy Somethin' Will Ya?

Nice tab

5

Not much else to say aside from nicely done, spot on really.

perfect!

5

thank you! this is such a good earthbound tab:) i bet you could tab mother earth really well . .

GTYNP candidate imo

GTYNP candidate imo