Ads

Boy Meets Girl (Earthbound) Guitar Tab

Submitted: Jun 22, 2018 by sir0nion

5
Average: 5 (2 votes)
Download | Listen
Game: Earthbound
Composer(s): Hirokazu Tanaka, Keiichi Suzuki
Style: Arrangement, Fingerstyle

AutoScroll: Slow | Medium | Fast
Game:       Earthbound
Song Title: Boy Meets Girl
Composer:   Keiichi Suzuki
Tabbed By:  James Carson
Date:       2018-05-13

     G/B                         G/C          G/A           
     E   E  E  E  E  E  E  E     E   E  E  E  E   E  E  E   
E||------------3-----------3--|------------3------------3--|
B||---------3-----------3-----|---------3------------3-----|
G||------0-----------0--------|------0------------0--------|
D||---------------------------|----------------------------|
A||--2------------2-----------|--3------------0------------|
E||---------------------------|----------------------------|


  G/B                         G/C          G/A           
  E   E  E  E  E  E  E  E     E   E  E  E  E   E  E  E   
------------3-----------3--|------------3------------3--|
---------3-----------3-----|---------3------------3-----|
------0-----------0--------|------0------------0--------|
---------------------------|----------------------------|
--2------------2-----------|--3------------0------------|
---------------------------|----------------------------|


  G                        C7M                    G                    
  E  E  Q    Q    E  E     Q    Q    Q    Q       Q    Q    Q    Q     
--------3---------3-----|-------0---------0----|-------3---------3----|
--------3---------3-----|-------1---------1----|-------3---------3----|
--------0----2----4--0--|------------4---------|----------------------|
-----0------------------|-------2--------------|----------------------|
--2---------------------|--3-------------------|-------0----2---------|
------------------------|----------------------|--3-------------------|


  D                        G                       Bm                   
  Q    Q    Q    Q         Q    Q    Q    E  E     Q    Q    Q    Q     
-------2---------2----||--------3----2----3-----|----------------------|
-------3---------3----||---3-----------------3--|--L--------------1----|
--2-------------------||*-----------------------|----------------------|
-------4----0---------||*-------0---------0-----|-------0---------0----|
----------------------||------------------------|--2---------2---------|
----------------------||---3---------3----------|----------------------|


  Em                      Bm                     C         D           
  Q    Q    Q    E  E     Q    Q    Q    Q       Q    Q    E  E  Q     
-------0---------------|----------------------|-----------------------|
--0---------3----1--0--|--L-------------------|-------0---------------|
-----------------------|-----------------2----|--0---------2--0--2----|
-------2---------2-----|-------0---------0----|-------2----------4----|
-----------------------|--2---------2---------|--3---------5----------|
--0---------0----------|----------------------|-----------------------|


  Em   C    D            C         D             Em   C     D         
  Q    Q    Q    Q       Q    Q    E  E  Q       Q    E  E  H         
----------------------|-----------------------|----------------------|
-------0---------3----|-------0---------------|----------0-----------|
--0---------2---------|--0---------2--0--2----|--0----2-----2--------|
--2---------0---------|-------2----------4----|--2----------0--------|
-------3--------------|--3---------5----------|-------3--------------|
----------------------|-----------------------|----------------------|


  G                       Bm                     Em                    
  Q    Q    Q    E  E     Q    Q    Q    Q       Q    Q    Q    E  E   
-------3----2----3-----|----------------------|-------0---------------|
--3-----------------3--|--L--------------1----|--0---------3----1--0--|
-----------------------|----------------------|-----------------------|
-------0---------0-----|-------0---------0----|-------2---------2-----|
-----------------------|--2---------2---------|-----------------------|
--3---------3----------|----------------------|--0---------0----------|


  Bm                     C          D             Em   C    D         
  Q    Q    Q    Q       Q    E  E  Q    E  E     Q    Q    H         
----------------------|------------------------|---------------------|
--L-------------------|------------------------|--0------------------|
-----------------2----|--0----0--0--2----2--2--|-------0----2--------|
-------0---------0----|-------2----------4-----|--2---------0--------|
--2---------2---------|--3----------5----------|-------3-------------|
----------------------|------------------------|---------------------|


  G                       G                      Em                    
  Q    Q    E  E  Q       Q    Q    Q    Q       Q    E  E  Q    Q     
-----------------------|----------------------|--0----2--0--2----3----|
--0----3----1--0-------|----------------------|-----------------------|
------------------2----|--0-------------------|-----------------------|
-------0----------0----|-------0---------0----|-------2----------2----|
------------3----------|----------------------|-----------------------|
--3--------------------|--3---------3---------|--0----------0---------|


   C                            D                        G               D     
   Q     E  S   S Q     Q       Q    E  E  Q    E.  S    Q    E  E  Q    Q     
-----------------------------|----------0-------------|-----------------------|
--10--------8h-10-7----------|--3----3-----3----1---3-|--0-------1--0---------|
------------------------9----|------------------------|------------------2----|
--------10-------------10----|--0----------0----------|-------0----------0----|
-----------------------------|-------0----------0-----|-----------------------|
---8--------------8----------|------------------------|--3----------3---------|


  Em                      A                      D                        
  Q    Q    Q    E  E     Q    Q    Q    Q       E  E  E  E  E  E  E  E   
-----------------------|-----------------0----|--3-----------2-----------|
--------------------0--|----------------------|-----3-----3-----3-----3--|
--0--------------2-----|--2-------------------|--------2-----------2-----|
-------2---------2-----|-------2---------2----|--0-----------0-----------|
-----------------------|--0---------0---------|--------------------------|
--0---------0----------|----------------------|--------------------------|


  D                          D                        
  E  E  E  E  E  E  E  E     E  E  E  E  E  E  E  E   
--0-----------------------|--------------------------|
-----3-----3--3-----------|-----------------0--1-----|
--------2--------2-----2--|--------------2--------2--|
--0-----------0-----4-----|--0--2--4--0--------------|
--------------------------|--------------------------|
--------------------------|--------------------------|


  G                          G                          
  E  E  E  E  E  E  E  E     E  E  E   E  E  E  E   E   
--------------------------|----------------------------|
-----------3-----------3--|--------1s--3--------0h--3--|
--------0-----------0-----|-----0------------0---------|
-----0-----------0--------|----------------------------|
--------------5-----------|--0------------2------------|
--3-----------------------|----------------------------|


  G                          G                        
  E  E  E  E  E  E  E  E     E  E  Q    E  E  Q       
-----------3-----------3--|--------3----------3-----||
--------3--------3--------|--------1----------0-----||
-----0--------------0-----|------------------------*||
--------------2-----------|--2--0------------------*||
--------------------------|--------3----2--0--------||
--3-----------------------|-------------------3-----||




Duration Legend
---------------
W - whole
H - half
Q - quarter
E - 8th
S - 16th
T - 32nd
X - 64th
. - note dotted
|-n-|  - n-tuplets


Tablature Legend
----------------
L - tied note
x - dead note
g - grace note
(n) - ghost note
> - accentuded note
NH - natural harmonic
AH - artificial harmonic
TH - tapped harmonic
SH - semi harmonic
PH - pitch harmonic
h - hammer on
p - pull off
b - bend
br - bendRelease
pb - preBend
pbr - preBendRelease
brb - bendReleaseBend
\n/ - tremolo bar dip
\n - tremolo bar dive
-/n - tremolo bar Release up
/n\ - tremolo bar inverted dip
/n - tremolo bar return
-\n - tremolo bar Release down
S - shift slide
s - legato slide
/ -  slide into from below or out of upwards
\ -  slide into from above or out of downwards
~ - vibrato
W - wide vibrato
tr - trill
TP - tremolo picking
T - tapping
S - slap
P - pop
< - fade in
^ - brush up
v - brush down
Login or Register to remove this ad.