Ads

Uragiri no Yuuyake (Durarara!!) Guitar Tab

Submitted: Mar 02, 2012 by JordanVS

5
Average: 5 (4 votes)
Download | Listen
Game: Durarara!!
Composer(s): Theatre Brook
Style: Arrangement, Fingerstyle

This song is also called Opening Theme 1

AutoScroll: Slow | Medium | Fast
Uragiri no Yuuyake                                
Theatre Brook
Durarara!! 
1st Opening

Standard Tuning,No Capo



     H.           E  E       Q    E  E  Q    E  E     E  E  E  Q    E  E  E   
E||---------------------||---0---------------------|-------------------------|
B||------------------3--||---0----0-----0----0-----|--0--------0----------0--|
G||---------------------||*--0-------0----------0--|-----2--0-------0--------|
D||---------------------||*------------------------|-------------------------|
A||---------------------||-------------------------|-------------------------|
E||---------------------||---0----0----------0-----|--------0----------0-----|


  Q    E  E  Q    E  E     E  E  E  E  Q    E  E     Q    E  E  Q    E  E   
------------------------|-------------------------|--0---------------------|
------------------------|-----------0----------3--|--0----0--3--0----0-----|
--2----2--0--2----2--0--|--2--2--0-----2----------|--0------------------2--|
------------------------|-------------------------|------------------------|
-------0----------0-----|--------0----------0-----|--L---------------------|
------------------------|-------------------------|--0----0----------0-----|


  E  E  E  Q.     E  E     Q    E  E  E  E  E  E     E  E  E  Q    E  E  E   
------------------------|-------------------------|----------------------0--|
-----------0---------0--|-------------------------|-----------0-------------|
--L--2--2---------0-----|--2----2--0--2--2--2--0--|--2--2--0-------2--------|
------------------------|-------------------------|-------------------------|
------------------------|-------0-----------0-----|--------0----------0-----|
--------0---------0-----|-------------------------|-------------------------|


  E  E  E  E  E  E  E  E     E  E  E  E  E  E  E  E   
--5-----3-----0-----------|--------0-----0--3--------|
--------------1-----------|-----------3--------------|
--------------------------|--------------------------|
--------------2--2--2--2--|--2--2--2--2--0--0--0--0--|
--0--0--0--0--------------|--------------------------|
--------------------------|--------------------------|


  E  E  E  E  E  E  E  E     E  E  E  E  E  E  E  E   
--------------------------|--------------------------|
--------------------------|--------------------------|
--------4--3--4-----4--3--|--4--4--4--3--4-----------|
--------------------------|-----------------------2--|
--------------------------|--------------2--2--2--2--|
--0--0--0--0--2--2--2--2--|--3--3--3--3--------------|


  E  E  E  E  E  E  E  E     E  E  E  E  E  E  E  E   
--------------------------|--------------------------|
--------------------------|--------------------------|
--2-----0-----------------|-----------------0--------|
--------------2-----------|-----2--2--0--2-----------|
--0--0--0--0--2--2--2--2--|--3--3--3--3--------------|
--------------------------|--------------0--0--0--0--|

			  1------------------------

  E  E  E  E  E  E  E  E     E  E  E  Q    Q    E     E  E  E  E  E  E  E  E   
--------------------------|-----------2------------|--0--------0--0--0--0--3--|
--------------------------|--4-----4--4----4-------|--------------------------|
-----4--4--3--4--4--4--4--|--4-----4--4------------|--0--------------------4--|
--------------------------|-----------4----1-------|--------------------------|
--------------------------|-----------2------------|--------------------------|
--2--2--2--2--2--2--2--2--|--2--2--2--2------------|--0--0--0--0--0--0--0--0--|


  E  E  E  E  E  E  E  E     E  E  E  E  E  E  E  E   
-----0-----------0--------|--------0--0--0-----0--3--|
--------------------------|-----------------3--------|
-----0-----------0--------|--------------------0--4--|
--------------------------|--0--0--0--0-----4--------|
--3--3--3--3--3--3--3--3--|--------------0--0--0--0--|
--------------------------|--------------------------|


  E  E  E  E  E  E  E  E     E  E  E  E  E  E  E  E   
--L-----------L--------3--|--L--3-----3-----------3--|
-----------------3--------|--------------------------|
--L-----------L--------0--|--L--0-----0-----------0--|
-----------------0--2-----|--------2-----------------|
--------------------------|--------------------------|
--0--0--0--0--0--0--0--0--|--3--3--3--3--3--3--3--3--|

                                                     
  E  E  E  E  E  E  E  E     E  E  E  E  E  E  E  E     E  E  E  H        E   
--L--2--0--3-----0--------|--------------------------|--2-----2--2-----------|
--------------------------|--4-----4-----4-----4--4--|--4-----4--4--------L--|
--L--------0--------------|--4--4--4--4--4--4--4--4--|-----------4--------L--|
-----4--2--------2--------|-----4-----4-----4-----4--|-----------4--------L--|
--0--0--0--0--0--0--0--0--|--------------------------|-----------2--------L--|
--------------------------|--2--2--2--2--2--2--2--2--|--2--2--2--2--------L--|


  E  E  E  E  E  E  E  E     E  E  E  E  E  E  E  E   
--0-----0-----2-----2-----|--------------------------|
--------------------------|--0-----0-----------------|
--------------2-----2-----|--0-----0-----0-----0-----|
--2-----2-----------------|--------------0-----0-----|
--------------------------|--------------2--2--2--2--|
--0--0--0--0--2--2--2--2--|--3--3--3--3--------------|


  E  E  E  E  E  E  E  E     E  E  E  E  E  E  E  E   
--------------------------|--0-----0-----2-----2-----|
--1-----1-----3-----3-----|--1-----1-----3-----3-----|
--2-----2-----4-----4-----|--------------------------|
--------------------------|--------------------------|
--0--0--0--0--2--2--2--2--|--3--3--3--3--0--0--0--0--|
--------------------------|--------------------------|


  E  E  E  E  E  E  E  E     E  E  E  E  E  E  E  E   
--0-----0-----2-----2-----|--------------------------|
--------------------------|--0-----0-----------------|
--0-----0-----2-----2-----|--0-----0-----0-----0-----|
--------------------------|--------------0-----0-----|
--------------------------|--------------2--2--2--2--|
--0--0--0--0--2--2--2--2--|--3--3--3--3--------------|

                                                      2------------------------

  E  E  E  E  E  E  E  E     E  E  E  E  E  E  E  E       E  E  E  H        E   
--------------------------|--0--------0--2------------||-----------2--------L--|
--1-----1-----3-----3-----|--1--------1-----------3---||--4-----4--4--------L--|
--2-----2-----4-----4-----|--0-----------------------*||--4-----4--4--------L--|
--------------------------|--2-----------0-----------*||-----------4--------L--|
--0--0--0--0--2--2--2--2--|--3--3--3--3--0--0--0------||-----------2--------L--|
--------------------------|---------------------------||--2--2--2--2-----------|


  Q    E  E  E  E  E  E     E  E  E  E  E  E  E  E     E  E  E  E  E  E  E  E   
-------------------------|--------------------------|-----------------0--------|
--1----5--3--5--3--5--3--|--5--3--5--3--5--3--5--3--|--L--0-----------------3--|
--2----------------------|--------------------------|-----------------0--------|
--2----5--4--5--4--5--4--|--5--4--5--4--5--4--5--4--|--L--0-----------------4--|
--0----0-----0-----0-----|--0-----0-----0-----0-----|--------------------------|
-------------------------|--------------------------|-----3--3--3--3--3--3--3--|


  E  E  E  E  E  E  E  E     Q    E  E  E  E  E  E     E  E  E  E  E  E  E  E   
--------------------------|-------------------------|-----------------0--1--0--|
--L--0--------------------|-------3--3--3--3--3--3--|--3--3--3--3--3-----------|
--------------------------|--3----------------------|--------------------------|
--L--0--------------------|--3----0-----0-----0-----|--0-----0-----0--2--3--2--|
--------------------------|--1----1--1--1--1--1--1--|--1--1--1--1--1-----------|
--3--3--3--3--3--3--3--3--|-------------------------|--------------------------|


  E  E  E  E  E  E  E  E     E  E  E  E  E  E  E  E     Q    E  E  E  E  E  E   
--L--------------1-----0--|--L-----------------------|-------------------------|
--------1-----------------|-----1--------------------|--1----5--3--5--3--5--3--|
--------2-----------------|-----2--------------------|--2----------------------|
--L-----2--------3-----2--|--L--2--------------------|--2----5--4--5--4--5--4--|
--0--0--0--0--0--0--0--0--|--0--0--0--0--0--0--0--0--|--0----0-----0-----0-----|
--------------------------|--------------------------|-------------------------|


  E  E  E  E  E  E  E  E     E  E  E  E  E  E  E  E   
--------------------------|-----------------0--------|
--5--3--5--3--5--3--5--3--|--L--0-----------------3--|
--------------------------|-----------------0--------|
--5--4--5--4--5--4--5--4--|--L--0-----------------4--|
--0-----0-----0-----0-----|--------------------------|
--------------------------|--3--3--3--3--3--3--3--3--|


                                                       ^  v  ^  v  ^  v    ^   
  E  E  E  E  E  E  E  E     Q    E  E  E  E  E  E     E  E  E  E  E  Q    E   
--------------------------|-------------------------|-------------------------|
--L--0--------------------|--3----3--1--3--1--3--1--|--3--3--3--3--3--3----4--|
-----------------2--0-----|--3----3-----3-----3-----|--3--3--3--3--3--3----4--|
--L--0--------------------|--3----------------------|--3--3--3--3--3--3----4--|
--------------------------|--1----1-----1-----1-----|--1--1--1--1--1--1----2--|
--3--3--3--3--3--3--3--3--|-------------------------|-------------------------|


     ^  v  ^  v  ^  v  ^                                ^                  
  E  E  E  E  E  E  E  E     E  E  E  E  E  E  E  E     W                  
--------------------------|--2-----2-----------------|--0----------------||
--L--4--4--4--4--4--4--4--|--4-----4--4--------------|--0----------------||
--L--4--4--4--4--4--4--4--|-----------4--------------|--0----------------||
--L--4--4--4--4--4--4--4--|--------------------------|--2----------------||
-----2--2--2--2--2--2--2--|--2--2--2--2--2--2--2--2--|--2----------------||
--------------------------|--------------------------|--0----------------||




Duration Legend
---------------
W - whole
H - half
Q - quarter
E - 8th
. - note dotted


Tablature Legend
----------------
L - tied note
^ - brush up
v - brush down
Login or Register to remove this ad.

1 comment on Uragiri no Yuuyake

Awesome! >:D

Awesome! >:D