Ads

Ecolove (Dune) Bass/Guitar Tab

Submitted: Aug 19, 2009 by hslesperance (Last updated: Jan 15, 2011)

0
Download | Listen
Game: Dune
Composer(s): St├ęphane Picq, Philip Ulrich
Style: 2 or more instruments, Transcription

AutoScroll: Slow | Medium | Fast
Ecolove
Dune
Composed by St├ęphane Picq and Philip Ulrich
Tabbed by hslesperance
9/19/09

Standard Tuning


Guitar 1

0:21, 2:27
e---6---------------------------------------------
B------7--6-----6-----6--7------------------------
G------------6-----6------------------------------
D-------------------------------------------------
A-------------------------------------------------
E-------------------------------------------------


Guitar 2

0:52
e-------------------------------------------------
B---6--7------------------------------------------
G---------6--8------------------------------------
D-------------------6--8--------------------------
A-------------------------------------------------
E-------------------------------------------------

e-------------------6---------6-------------------
B---6--7---------------9--------------------------
G---------6--8------------------------------------
D-------------------------------------------------
A-------------------------------------------------
E-------------------------------------------------


Guitar 3

1:02, 2:27
e---9/11------9/11----------7/9------7/9----------
B-------------------------------------------------
G-------------------------------------------------
D-------------------------------------------------
A-------------------------------------------------
E-------------------------------------------------


Guitar 4

1:23, 2:47
e------------------------------------11-----------
B---------------11--9--------------------11--12---
G---8--8-10-11---------11--10--8--8---------------
D-------------------------------------------------
A-------------------------------------------------
E-------------------------------------------------

e-------------------------------------------------
B---------------11--9-----------------------------
G---8--8-10-11---------11--10--8--10----11--10----
D-------------------------------------------------
A-------------------------------------------------
E-------------------------------------------------

e------------------------------------11-----------
B---------------11--9--------------------11--12---
G---8--8-10-11---------11--10--8--8---------------
D-------------------------------------------------
A-------------------------------------------------
E-------------------------------------------------

e-------------------------------------------------
B------------11--9--------------------------------
G---8-10-11---------11--10--8--10------11--10-----
D-------------------------------------------------
A-------------------------------------------------
E-------------------------------------------------

e---11------11----------9------9------------------
B---11------11----------9------9------------------
G-------------------------------------------------
D-------------------------------------------------
A-------------------------------------------------
E-------------------------------------------------

e-----------------------9-------------------------
B---12------12----------9--------11---------------
G-------------------------------------------------
D---13------13------------------------------------
A-------------------------------------------------
E-------------------------------------------------

e---11------11----------9------9------------------
B---11------11----------9------9------------------
G-------------------------------------------------
D-------------------------------------------------
A-------------------------------------------------
E-------------------------------------------------

e-------------------------------9-----------------
B---12------12----------11-------------11--11-----
G-------------------------------------------------
D---13------13------------------------------------
A-------------------------------------------------
E-------------------------------------------------


Guitar 5

3:08
e-------------------------------------------------
B-----------9-------------------------------------
G---8h10h11--------11--10------8--10--------8-----
D--------------------------------------------h11p8
A-------------------------------------------------
E-------------------------------------------------

e-------------------------------------------------
B-------------------------------------------------
G-------------------------------------------------
D---------8---------------------------------------
A---11-------------8h9--8------8------------------
E--------------------------11---------------------

e-------------------------------------------------
B---------------------9---------------------------
G---9h10--11-------------10h11--10--8--------8----
D----------------------------------------11-------
A-------------------------------------------------
E-------------------------------------------------

e---------------------------10b11--------------14-
B---11h12--------11--9-----------------14--11-----
G-----------------------11------------------------
D-------------------------------------------------
A-------------------------------------------------
E-------------------------------------------------

e---13------11------------13--11----------11------
B---------------11------------------11--------11--
G-------------------------------------------------
D-------------------------------------------------
A-------------------------------------------------
E-------------------------------------------------

e-------------------------------------------------
B---Lb12r----------12------11---------------------
G--------------13-------------11------------------
D--------------------------------15-11-----10-11--
A--------------------------------------13---------
E-------------------------------------------------

e-------------------------------------------------
B---------------------------------------------11--
G-------10--10h11p10---11------11p10--------------
D---13--------------------------------13----------
A-------------------------------------------------
E-------------------------------------------------

e-------------------------------------------------
B-------------------------------------------------
G---13--10h11--10-----10h11----10--------11--10---
D------------------13--------------13-------------
A-------------------------------------------------
E-------------------------------------------------

e-------------------------------------------------
B-------------------------------------------------
G---11--------10------------Lb11r-----------------
D-------13----------------------------------------
A-------------------------------------------------
E-------------------------------------------------


Guitar 6

3:50
e-------11----------------------11----------------
B-----------11--12------------------11--12--------
G-------------------------------------------------
D---13----------------------13--------------------
A-------------------------------------------------
E-------------------------------------------------

e-------14--13----11--------------11--------------
B-----------------------14------------11--11--12--
G-------------------------------------------------
D---13------------------------13------------------
A-------------------------------------------------
E-------------------------------------------------

e-------11----------------------------------------
B-----------11--12--------------------------------
G-------------------------------------------------
D---13--------------------------------------------
A-------------------------------------------------
E-------------------------------------------------


Guitar 7

4:00
e---11-----------------14-------------------------
B-------------12p11h12-------------11-------------
G--------------------------13-------------13p11p10
D-------------------------------------------------
A-------------------------------------------------
E-------------------------------------------------

e-------------------------------------------------
B-------------------------------------------------
G------10----------------10--10h11--10--------10--
D---13-------10h11---13-------------------13------
A-------------------------------------------------
E-------------------------------------------------

e-------------------------------------------------
B----------------------11-------------------------
G------------10--11--------13--11--10-------------
D---12h13--------------------------------13-------
A-------------------------------------------------
E-------------------------------------------------

e-------------------------------------------------
B----------------------11-------------------------
G------------10--11--------13--11--10-------------
D---12h13------------------------------------11---
A-------------------------------------------------
E-------------------------------------------------

e-------------------------------------11----------
B-------------------11--------------------11----12
G---------10--11--------13--11--10----------------
D---13--------------------------------------------
A-------------------------------------------------
E-------------------------------------------------

e-------------------------------------------------
B-------------------10h11-------------------------
G---------10--11-----------13--11--10-------------
D---13--------------------------------------------
A-------------------------------------------------
E-------------------------------------------------

e-------------------------------------11----------
B---------------11-----------------------11--12---
G---------10h11-----13--11--10--------------------
D---13--------------------------13----------------
A-------------------------------------------------
E-------------------------------------------------

e-------------------------------------------------
B-----------------11------------------------------
G----------10h11------13--11--10------10----------
D---12h13-------------------------13--------------
A-------------------------------------------------
E-------------------------------------------------

e-------------------------------------------------
B-----------------11------------------------------
G----------10h11------13--11--10------------------
D---12h13-------------------------13--------------
A-------------------------------------------------
E-------------------------------------------------


Guitar 8 - I had trouble hearing this one so some
notes may be missing.

4:06
e---13----14--16----16--18--19--19----18--18------
B-------------------------------------------------
G-------------------------------------------------
D-------------------------------------------------
A-------------------------------------------------
E-------------------------------------------------

e---16----18------------19--21--19----18----------
B-----------------------------------------21------
G-------------------------------------------------
D-------------------------------------------------
A-------------------------------------------------
E-------------------------------------------------

e---18--------------------------------------------
B---------18----19--------18------18--------------
G-----------------------------20------------------
D-------------------------------------------------
A-------------------------------------------------
E-------------------------------------------------

e-----------------------------18------------------
B-----------------18--19--21----------------------
G---20--------------------------------------------
D-------------------------------------------------
A-------------------------------------------------
E-------------------------------------------------

e-------------------------------------------------
B-------------------------------------------------
G---20--18----------------------------------------
D-----------21--20--21--20------------------------
A-------------------------------------------------
E-------------------------------------------------

e-------------------------------------------------
B-------------------------------------------------
G---16--18--16----15--16--------------------------
D-------------------------------------------------
A-------------------------------------------------
E-------------------------------------------------


Bass

1:02
G-------------------------------------------------
D------1-------1----------------------------------
A---4-------4-----------4----2--4--------2----1--2
E-------------------------------------------------

G-------------------------------------------------
D-------------------1-------1---------------------
A---1------1-------------4-----------4----2--4----
E-------------------------------------------------

G-------------------------------------------------
D-------------------------------------------------
A---2----1--2--------1-------1----1---------------
E-------------------------4-----------------------

G-------------------------------------------------
D---1-------1--------1-------1--------------------
A--------4----------------4-----------2----1--2---
E-------------------------------------------------

G-------------------------------------------------
D--------------------1-------1--------1-------1---
A---1-------1-------------4----------------4------
E--------4----------------------------------------

G-------------------------------------------------
D-------------------------------------------------
A---2----1--2--------1-------1----1---------------
E-------------------------4-----------------------

G-------------------------------------------------
D---1------1--------------------------------------
A-------------------4------4--------2------2------
E-------------------------------------------------

G-------------------------------------------------
D------------------------1------1-----------------
A---1------1----4-2-1-2------------------4------4-
E-------------------------------------------------

G-------------------------------------------------
D-------------------------------------------------
A---2------2--------1------4----1--1--------------
E-------------------------------------------------

2:27 - Play these three measures below six times
G-------------------------------------------------
D---1-------1-------------------------------------
A--------4-----------4----2--4--------2----1--2---
E-------------------------------------------------

G-------------------------------------------------
D-------------------1-------1---------------------
A---1------1-------------4-----------4----2--4----
E-------------------------------------------------

G-------------------------------------------------
D-------------------------------------------------
A---2----1--2--------1-------1----1---------------
E-------------------------4-----------------------

h - hammer on
p - pull off
b - bend
r - release
L - tied note
Login or Register to remove this ad.

1 comment on Ecolove

Thanks a lot hslesperance, u

Thanks a lot hslesperance, you make me happy so much !!!! Just have to learn all parts and mix then for playing the complete songs lol :)