Ads

The Moon (Duck Tales) Bass/Guitar Tab

Submitted: Jan 12, 2015 by andersongs87

0
Download | Listen
Game: Duck Tales
Composer(s): Yoshihiro Sakaguchi
Style: 2 or more instruments, Transcription

Click here for a video example.

AutoScroll: Slow | Medium | Fast
Ducktales - The Moon

Composers -  Hiroshige Tonomura

Tabbed by andersongs87

Tuning: 
Guitar Standard (EADGBe)
Bass (EADG)

MP3 Download : https://www.mediafire.com/?gtvgwp82m1p38ir
Backing Track : https://www.mediafire.com/?ptb97s8bad8cq9v
Youtube Cover : http://www.youtube.com/watch?v=j0UPj0bRAms

01/08/2015

Bass (My Rhythm Guitar play the same notes with power chords)

G----------8--7-|--------------------------------------------|-------|-------------------------|
D---4--1--8--7--|--------------------------------------------|-------|-------------------------|
A--4--1--6--5---|-9xx-8x-6x-4x-2x-3x-4xx-9x-7x-6x-5x-4x-3x4x-|-5-7-9-|-9x------7-7-------------|
E-2--0----------|--------------------------------------------|-------|-----7-7-----5--5x-7x-9x-|

G------------------------------|
D------------------------------|
A-----7-7----------------5-7-9-|
E-7-7-----5-5x-7x-9x-10x-------|

Guitar Lead

e------------------------------14-16-14-21~-|
B---------12-12-11-------14-----------------|
G---11-13----------13-11----11--------------|
D-11----------------------------------------|
A-------------------------------------------|
E-------------------------------------------|

e-----------------------------|-------9---------------------------|
B--------------------9-11-----|-----------------------------------|
G-----------11-10-11------11~-|-10-11---11-11~-11-11-11-13-11-10~-|
D-8-9-11-11-------------------|-----------------------------------|
A-----------------------------|-----------------------------------|
E-----------------------------|-----------------------------------|

e-----------|----------------|----------------------|-------------------------|
B-----------|----9-12-11-11~-|-14-12-11-12-11-------|-------------------------|
G-----------|-11-------------|----------------11----|-13-11-10----10-11-11-11-|
D-8------11-|----------------|-------------------11~|----------13-------------|
A---11-9----|----------------|----------------------|-------------------------|
E-----------|----------------|----------------------|-------------------------|

e-----------------------------------|-------------------------------------------|-------|
B-----------------------------------|---------------------------------14-14-14~-|-------|
G-11-11-13-13-9----9----------------|-11-11-13-13-14---------14-16-14-----------|-------|
D---------------11---9-7-9-7-9-7-11-|----------------14-14-14-------------------|-------|
A-----------------------------------|-------------------------------------------|-5-7-9-|
E-----------------------------------|-------------------------------------------|-------|


Login or Register to remove this ad.