Ads

Land Select (Duck Tales) Guitar Tab

Submitted: Jan 20, 2010 by LTRobson (Last updated: Jan 20, 2010)

0
Download | Listen
Game: Duck Tales
Composer(s): Yoshihiro Sakaguchi
Style: Alternate picking, Arrangement, Fingerstyle, Transcription

AutoScroll: Slow | Medium | Fast
Duck Tales - Land Select (NES)
Tabbed by LTRobson Jan 2010

Standard tuning

Guitar 1
|-17------16--17------16--17------17------16--17------16--17-----
|-----17----------17----------17------17----------17----------17-
|----------------------------------------------------------------
|----------------------------------------------------------------
|----------------------------------------------------------------
|----------------------------------------------------------------

Guitar 2
|----------------------------------------------------------------
|--2-----------3------------------5------------3-----------------
|----------------------------------------------------------------
|----------------------------------------------------------------
|----------------------------------------------------------------
|----------------------------------------------------------------

Or together:
|--5--0--4--5--0--4--5--0--5--0--4--5--0--4--5--0-
|--2--------3--------------5--------3-------------
|-------------------------------------------------
|-------------------------------------------------
|-------------------------------------------------
|-------------------------------------------------

Or:
|--5--0--4--5--0--4--5--0--5--0--4--5--0--4--5--0-
|-------------------------------------------------
|-------------------------------------------------
|-----------0--------------2--------0-------------
|--4----------------------------------------------
|-------------------------------------------------

Or:
|--5--0--4--5--0--4--5--0--5--0--4--5--0--4--5--0-
|-------------------------------------------------
|-------------------------------------------------
|-----------0-----------------------0-------------
|--4----------------------------------------------
|--------------------------0----------------------
Login or Register to remove this ad.