Amazon (Duck Tales) Guitar Tab

Submitted: Feb 10, 2014 by JordanVS

5
Average: 5 (2 votes)
Download | Listen
Game: Duck Tales
Composer(s): Yoshihiro Sakaguchi
Style: Arrangement, Fingerstyle

AutoScroll: Slow | Medium | Fast
Amazon                                                
Level Select/Hidden Treasure
Duck Tales
Hiroshige Tonomura
JordanVS
                                                                                
*Capo on the 5th fret 
-4/4


   *Level Select (Tempo : 150)

     E  E  E  E  E  E  E  E     E  E  E  E  E  E  E  E     E  E  E  E  E  E  E  E   
E||--0--------0--------0-----|--0--------0--------0-----|--0--------0--------0-----|
B||--------4--------4--------|--------4--------4--------|--------4--------4--------|
G||-----4--------4--------4--|-----4--------4--------4--|-----4--------4--------4--|
D||--------------------------|--------------------------|--------------------------|
A||-----------0--L-----------|--2--------0--L-----------|-----------0--L-----------|
E||--4-----------------------|--------------------------|--4-----------------------|


					      Amazon (Tempo : 110 )
					      Segno
  E  E  E  E  E  E  E  E     W                   E  E  E  E  E  E  S E.   
--0--------0--------0-----|--0----------------|--------------------------|
--------4--------4--------|--0----------------|-----0-----0-----1----3---|
-----4--------4--------4--|--4----------------|--------------------------|
--------------------------|-------------------|-----0-----0-----2----4---|
--2--------0--L-----------|-------------------|--------------0-----5-----|
--------------------------|-------------------|--3-----0-----------------|


  E  E  E  E  E  E  S E.     E  E  E  E  E  S S S S E     E.  S  Q    S S  E  S  Q     
--------------------------|--------------0----0--------|------------------------------|
-----0-----0-----1----3---|--------0--3-----3-----3-0--|------------------------------|
--------------------------|-----0----------------------|--2---2--L------2s-4--2--L----|
-----0-----0-----2----4---|--------0-------------------|------2-------0-------4--L----|
--------------0-----5-----|---------------------2------|--0---------------------------|
--3-----0-----------------|--3-----------3-------------|------------------------------|


  E  E  E  E  E  S S S S S  S    E.  S  Q    S S  E  S  E  E     Q    E  E  E  S S Q     
--------------0----3---0------|-------------------------------|-------------------------|
--------0--3-----3-------3p-0-|-------------------------------|----------------0--------|
--L--0------------------------|--2---2--L------2h-4--2--L-----|--0-------0--2----0-L----|
--------0---------------------|------2---------------------1--|-------2-----------------|
---------------------2--------|--0-----------2-------L--4-----|------------------2-L----|
--3-----------3---------------|-------------------------------|--0----------0-----------|


  E  E  S E  Q    E.  S S    E.  S Q    E.  S Q       E.  S Q    S S S S S S S S  
--------------------------|------------------------|-----------------0---6-5-3-0-|
----------0---------------|--3---3-L----3---3-L----|--3---3-L------3---3---------|
--2--0--2----0--------0---|-------------0---0-L----|--1---1-L----2---0-------2---|
--------0---------2-------|--4---4-L----2---2-L----|--3---3-L----4-------6-------|
------------------2-----L-|--5---5-L---------------|-----------------------------|
--3----------3------------|------------------------|-----------------------------|


                                      |---3--|                                                  
  S S E  E  S S E  S  E  S S S    S S S Q    S S S Q.     S S    S S E  E  S  S S E  S S S S S  
--3-3-------3-3------------3---|--2-2----------2-2--------2---|--1-1-------1--1------------1---|
-------------------------------|------------------------------|--------------------------------|
-------------------------------|------------------------------|------------------------0-------|
------------0---2--0h-2--0-----|--------2----0-----L------2-0-|--2---2--2--0h-2---2--0---2-0---|
---------2-----------------2-1-|------------------------------|------------------------------2-|
------3------------------------|--2---------------------------|--------------------------------|


  S S  S S E  S S E  E  E  E     S E  S  S S S S S E  S S S S S    E  E  E  E  E  S S S S S S  
--0-0---------0-0----------0--|--3-3--3--L-------3-3--3-L-------|-----7--6--5--4----0-----0---|
------------------------------|---------------------------------|-----8--7--6--5--4---0-----3-|
------------------------------|----------------0--------------0-|-----7--6--5--4--------0-----|
---------------------0--------|--------------2--------------2---|-------------------------2---|
--0---------------------3--2--|--3----3----3-----4----4---4-----|-----------------------------|
----3p-0-3-L------------------|---------------------------------|--------------0--------------|

								Hidden Treasur (Tempo : 130)
							Da Segno 

  S S S S S S S S S S S E  S  S  S    Q    Q    E  S S S  S S  S    E  E  Q    E  S E  E.   
--0-3---0-3-------------3----------|-----------------------------|-------------------------|
--------------5-4-3-2-3----0-------|-----------------------------|-------------------------|
-----------------------------------|--3----2----0----------------|-------------------------|
------------------0-0---2--2h-3p-2-|--1----3---------0-2p-0------|--0--0-------2--2-2------|
--3-3-----4-4----------------------|------------------------2p-0-|-------------0--0-0------|
-----------------------------------|-----------------------------|--3--3-------------------|


  |----3----|                                   
  Q    Q    Q    H           W                  
--5----3----5----7--------|--L----------------||
--5----5----7----9--------|--L----------------||
--------------------------|-------------------||
--------------------------|-------------------||
--3----3----5----7--------|--L----------------||
--------------------------|-------------------||




Duration Legend
---------------
W - whole
H - half
Q - quarter
E - 8th
S - 16th
. - note dotted
|-n-|  - n-tuplets


Tablature Legend
----------------
L - tied note
h - hammer on
p - pull off
^ - brush up
v - brush down
Login or Register to remove this ad.