Title Theme (Duck Hunt) Guitar Tab

Submitted: Jun 04, 2009 by Alexander

5
Average: 5 (1 vote)
Download | Listen
Game: Duck Hunt
Composer(s): Koji Kondo, Hirokazu Tanaka
Style: Transcription

AutoScroll: Slow | Medium | Fast
Title theme of Duck Hunt
Composed by Koji Kondo and Hirokazu "Hip" Tanaka



e|4--4--3-----2-----1-----|------------------------|
B|6--6--5-----4-----3-----|5--------6--------------|
G|------------------------|------------------------|
D|------------------------|5--------6--------------|
A|------------------------|3--------4--------------|
E|------------------------|------------------------|


e|---13-9-----------------|------------------------|
B|---14-9--9--9--8--7--6--|5--------6--------------|
G|---13-10-10-8--7--6--5--|------------------------|
D|---------11-10-9--8--6--|5--------6--------------|
A|------------------------|3--------4--------------|
E|------------------------|------------------------|

For an easier version just play the high notes in the third measure, or the highs and lows.
Login or Register to remove this ad.