Ads

Castle Trumpeter (Dragon Quest V) Guitar Tab

Submitted: Jun 24, 2011 by diralark

4.5
Average: 4.5 (2 votes)
Download | Listen
Game: Dragon Quest V
Composer(s): Koichi Sugiyama
Style: Arrangement, Fingerstyle
Series: Dragon Quest

AutoScroll: Slow | Medium | Fast
                              Castle Trumpeter   from Dragon Quest V

Music by Koichi Sugiyama >> Orchestral Sequencing by Nicol Armarfi
 >> 2nd Bridge sequencing & Solo Guitar arr. by Diralark

Symphonic OST : http://www.youtube.com/watch?v=vr-KpFqI0Ss

Guitar, Capo 3 ( or Capo 5 to sync with Symphonic OST), tempo 96, let ring sometimes (check with gp5/pdf file)


       Main Part (Tempo : 96)                                                                               
       E        E  E  E  E  E  E  S  S    E  E  E  E  E  E  E  S  S    E  E  E  E  E  E  E  E   
E||------------------------------------|-----------------------3p-2-|--0--3-----0-----3--------|
B||---(0)----------------0--0--3-------|--0-----------0--------0----|--------------3--------3--|
G||*---0--------0--0--0-----------2p-0-|-----------0--2-------------|--0--0--0--0--0--0--0--0--|
D||*---0-------------------------------|--4--4--4-----1--1--4-------|--------------------------|
A||----------------------------2-------|--6-----------2-------------|--3--------3--2--------2--|
E||----3--------------------3----------|----------------------------|--------------------------|


  E  E  E  E  E  E  E  E     E  E  E  S S E  E  E  S  S    E  E  E  S  S E  E  E  S  S  
--------7-----5-----------|-----------------------------|------------------------------|
--2-----------------------|--0--0--0----0-1--------1p-0-|--1-----1-------0--------1h-3-|
--0--0--0--0-----0--2-----|--2-----1--2---2-----0-------|--2--2--2--0h-2---------------|
--------------4-----4--0--|--1-----2--------------------|--4-----4-------0-------------|
--0-----------5-----------|---------------0--2--3-------|-------------------0--2-------|
--------------------------|--------0--------------------|----------------3--------3----|


  E  E  E  E  E  E  E  E     E  E  E  E  Q    Q       E  E  E  E  E  E  E  E   
--0--------0--------------|------------------------|--------------------------|
-----3--1-----3--1--0--3--|--1--0--------1---------|--1-----------3-----1--1--|
--0-----------------0-----|--0-----2--0--0---------|--0-----0-----0--0--0-----|
--2-----2-----------0-----|--2-----2-----0----4----|--2--4-----2--0-----2-----|
--3-----------2-----------|--3-----4----------5----|--3-----------2-----0-----|
--------------------------|------------------------|--------------------------|


                       1._________________     Bridge 1                                          
                                               ^                          ^                      
  H        Q.     E     Q    Q    Q    Q       Q        Q    Q    Q       Q    E  E  Q    E  E   
---------------------|----------------------|---------------------0----|------------------2--0--|
--0------------------|----------------------|--0-------------0---------|--0----------0----------|
--0--------2------0--|--0-------------------|--0--------0--------------|--0----------0----2-----|
--0--------4---------|------------0----4----|--2-------------0---------|-------2--4--2----------|
------------------2--|--2----2---------6----|--------------------------|--4----------3----------|
---------------------|--3-------------------|--------------------------|------------------------|


  II       + IV (3)                                                           
                         ^                                        ^           
  E  E  E  E        Q    Q       Q    Q    Q    Q       Q    Q    Q     Q     
--------2---------------------|--2----0----0---------|-------0----0-----8----|
--4--5-----4-------------4----|--0-------------------|--1----1----1----10----|
--2-----------------4----2----|--0-------------------|--2---------0----------|
--4----------------------4----|-----------------2----|-----------------------|
--2----------------------2----|------------2---------|-----------------------|
------------------------------|--0----3--------------|-----------------------|


               VII(1)                                      II                   
                                             ^                       ^          
  E  E   E  E  E      E  E  E     E  E  Q    Q    E  E     Q    Q    Q    Q     
-----7------0---------0--------|------------------------|----------------------|
-----8--10--8--7---------------|--0--1--3----3----1--0--|------------0----0----|
--9------------7S-----5--7--5--|-------------0----------|--2----2--------------|
---------------0---------------|--0----------2----------|--2----2----4---------|
--9----------------------------|-------------3----------|--3----3----6---------|
-------------------------------|--3---------------------|--2-------------------|


                             II(2)                                  rall----------                          
  ^                          ^                             ^                        
  E  E  E  E  E  E  E  E     E     E  E  E  E  E  E  E     E  E  E  E  E  E  E  E   
--------------------------|-----------------------------|-----------------------0--|
--0--0--0--0--3-----1-----|-----------------1-----0-----|-----0--------------2-----|
--1--------------------4--|--2-----2--2--2-----0--0--2--|--1--------1--0--3--------|
--0--------------3--3-----|--2--------------------------|--3-----3-----2-----------|
--------------------------|--0-----------------3--------|--2-----------------------|
--1-----------------------|-----------------------------|--------------------------|


--------------> T:86      2.____________         Bridge 2                        
            ^                                     ^                               
  Q    Q    Q    Q         Q    Q    Q    Q       E        E  E  E  Q    E  S  S  
--3---------2----------||----------------------|---------------------------------|
-----------------------||----------------------|---------------------------------|
--2-------------------*||--0-------------------|--------------------0------------|
--0----0----2----4----*||-------0--------------|--2--------2--2--2-------2--4p-2-|
--0--------------------||--2-------------------|---------------------------------|
-----------------------||------------3---------|--0-----------------0------------|


  ^                          ^           ^            ^           ^          
  E  E  E  E  Q    E  S S    E  E  E  E  Q    Q       E  E  E  E  Q.     E   
--------------------------|------------------------|------------------------|
--------------------------|------------------------|------------------------|
--------------------------|--0--0--0---------------|-----------2------------|
--------------------------|-----------9------------|--4--4--4-----0---------|
--6--6--6--7--9----6--6---|--7-----------7---------|--5-----------0------2--|
--7-----------7---------7-|--0-----------8----0----|------------------------|


  ^                          ^                                                   
  E  E  E  E  E  E  E  E     E  E  E  E  E  E  E  E     E  E  E  E  E  E  E  E   
--0--0--0-----------------|--0--0--0-----------------|--------------------------|
-----------0--------------|-----------0--------------|--0-----0-----------------|
--0-----------0--0--0-----|--------------------------|-----0-----1--2-----2-----|
-----------------------2--|--2-----------4--4--4-----|-----------------2-----4--|
--------------2-----------|--------------6--------6--|--2-----------0-----------|
--3-----------------------|--3-----------------------|--------4-----------------|


                             3._______________
              ^                                                         
  E  E  E  E  E.  S Q         Q    Q    H           H        H          
--------------------------||---------------------|--------------------||
------------------1-------||---------------------|--------------------||
-----0-----0--------2----*||--0------------------|--------------------||
--2-----2-----2----------*||-------0-------------|--------------------||
--3-----------------------||--2------------------|--------------------||
--------------3-----------||------------3--------|--L-----------------||

Note : look at fingersteps from gp5/pdf file

Legend
---------------
H - half
Q - quarter
E - 8th
S - 16th
. - note dotted
L - tied note
(n) - ghost note
h - hammer on
p - pull off
^ - brush up

Login or Register to remove this ad.