Ads

Town (Dragon Quest IV) Guitar Tab

Submitted: Feb 27, 2010 by musenji (Last updated: May 28, 2012)

0
Download | Listen
Game: Dragon Quest IV
Composer(s): Koichi Sugiyama
Style: 2 or more instruments, Fingerstyle, Transcription
Series: Dragon Quest

AutoScroll: Slow | Medium | Fast
Dragon Quest IV
Town
composed by Koichi Sugiyama
tabbed by musenji, 2006, 2010

A quaint, lively piece.

I got really excited when I realized the accompaniment could be tabbed
note for note.  It certainly could make for a good left-hand study.  :D  

For the melody, I think the hammer-ons and pull-offs are optional in many
places--it's all in how you want to play it.

Have fun!



Accompaniment:

|-----------------|----------------|------------------|----------------|
|---8---8---8---6-|--8---5---5---5-|--10---10---9---9-|--5---5---5---5-|
|---9---7---9---5-|--5---5---5---5-|--11---11---7---7-|--5---5---2---2-|
|10---9---8---7---|6---5---4---4---|9----9------------|7---5---4---4---|
|-----------------|----------------|----------7---7---|----------------|
|-----------------|----------------|------------------|----------------|

|----------3---2-|--1---1---------|-----------------|----------------|
|--3---3---1-----|----------6---3-|---8---8-6-------|----6---6-3-5---|
|--4---4-------2-|--2---2---4---4-|---9---9-----5---|5---4---5-0-----|
|3---3---2---1---|0---0---5---5---|10---8---7-------|5-----5---------|
|----------------|----------------|-------------5---|------------3---|
|----------------|----------------|-----------------|----------------|

|-----------------|----------------|------------------|----------------|
|--9-9-----9--9---|--8-8-----------|--10-10-----9-9---|--8-8-----------|
|----8-------10---|----8-----9-9---|------8-------7---|----8-----9-9---|
|-----------------|------------8---|------------------|------------8---|
|8-8---8----------|6-6---6---------|8--8----8---------|6-6---6---------|
|--------6-6----6-|--------8-8---8-|----------6-6---6-|--------8-8---8-|

|-----------------|----------8-8---|-------------------|-9-----9-----9-----------|10---10---10-------|
|-----------9-9---|--8-8-------8---|--10-10--------9---|12----12----12-----------|12---12---12-------|
|--8--8-------7---|----7-----------|------8-----7-10---|-----------------10------|-------------------|
|----10-----------|--------6-6---6-|-------------------|--------------------11---|-------------------|
|8-8----8---------|6-6---6---------|8-8-----8----------|---10----10------------10|--10---10-----10\--|
|---------6-6---6-|----------------|----------6-6----6-|-------------------------|-----------------3-|



Melody:

--------|------------------------------------|----20-------------------------------|
--17h18-|20--20--20--20--20--20--20p18-17h18-|20------------------17---------------|
--------|------------------------------------|--------------17h19-----------17h19--|
--------|------------------------------------|-------------------------------------|
--------|------------------------------------|-------------------------------------|
--------|------------------------------------|-------------------------------------|

	|------------------------------------|-------------------------------------|
	|17--17--17--17--17--17--17h18-17p15-|-------------------------------------|
	|------------------------------------|-17--14-------14h16-17---------------|
	|------------------------------------|-------------------------------------|
	|------------------------------------|-------------------------------------|
	|------------------------------------|-------------------------------------|

	|----------------------15------------|-------------------17-------15-------|
	|-12h13-15--15----------------13-----|--------------------------------18---|
	|---------------12-------------------|-14h16-17--17--14--------------------|
	|------------------------------------|-------------------------------------|
	|------------------------------------|-------------------------------------|
	|------------------------------------|-------------------------------------|

	|--------------------20--17----------|-------------------------------------|
	|-17h18-20--20---------------18------|-17----15h17p15--13-13---------------|
	|---------------17---------------19--|-------------------------------------|
	|------------------------------------|-------------------------------------|
	|------------------------------------|-------------------------------------|
	|------------------------------------|-------------------------------------|

	|---------------------------------13-|----------18-----15------------16h18-|
	|------13---13------------15--16-----|15p13--------------------------------|
	|------------------------------------|------15-----------------------------|
	|------------------------------------|-------------------------------------|
	|------------------------------------|-------------------------------------|
	|------------------------------------|-------------------------------------|

	|--19--20----------------------------|-------------------------------------|
	|----------------------------20--18--|-15h16-13h15-11----------------------|
	|----------17------------19----------|-----------------14p13-12---------12-|
	|------------------------------------|-------------------------------------|
	|------------------------------------|-------------------------------------|
	|------------------------------------|-------------------------------------|

	|------------------------------15p13-|--------13---15------------16--18h20-|
	|----------11h13------14h15----------|-15h16-------------------------------|
	|-Lh13-------------------------------|-------------------------------------|
	|------------------------------------|-------------------------------------|
	|------------------------------------|-------------------------------------|
	|------------------------------------|-------------------------------------|

	|--19h20-19h20-----------------------|-------------------------------------|
	|------------------------16h18-------|-20-----20-----20--------------------|
	|--------------17----19--------------|-------------------------------------|
	|------------------------------------|-------------------------------------|
	|------------------------------------|-------------------------------------|
	|------------------------------------|-------------------------------------|

	|------------------------------------|
	|-20-----20-----20-----------(17h18)-|
	|------------------------------------|
	|------------------------------------|
	|------------------------------------|
	|------------------------------------|
Login or Register to remove this ad.