Ads

Castle (Dragon Quest I) Guitar Tab

Submitted: Jul 24, 2020 by farmerdwight (Last updated: Aug 05, 2020)

4
Average: 4 (2 votes)
Download | No audio :(
Game: Dragon Quest I
Composer(s): Koichi Sugiyama
Style: Fingerstyle
Series: Dragon Quest

AutoScroll: Slow | Medium | Fast
e |---0---0---0---0-|-----------------|---1-0-1---1---1-|---------0-------|
B |-----3---1---0---|-----------------|---------3---1---|-0-----0---------|
G |-----------------|-2-------2-0-----|-----------------|-----1---------1-|
D |-----------------|-------2-----3-2-|-0---------------|---2-------2-4---|
A |-0---------------|---0-3-----------|-----------------|-----------------|
E |-----------------|-----------------|-----------------|-----------------|
                                                                     
e |---3-1-3-0-3---3-|-1---3---5---3-1-|-0-----0---------|-0---------------|
B |-------------2---|-----------------|-----1---3---4---|-----------------|
G |-2---------------|---2---2---2-----|---0-----4---4---|-1---------------|
D |-----------------|-----------------|-----------3---4-|---------2-0-----|
A |-----------------|-----------------|-----------------|-------2-----3-2-|
E |-----------------|-----------------|-----------------|---0-4-----------|
                                                                     
e |---5p4h5---------------|---5p4h5---------------|---------1-------|
B |---------5p4h5---------|---------5p4h5---------|-0---1-------1---|
G |---------------5p4h5---|---------------5p4h5---|---0---0---2---2-|
D |-7-------------------7-|---------------------7-|-----------------|
A |-0---------------------|-0---------------------|-----------------|
E |-----------------------|-----------------------|-----------------|

e |-0-------0-----0-|---5p4h5---------------|---5p4h5---------------|
B |-------0-----2---|---------5p4h5---------|---------5p4h5---------|
G |-----1-----0-----|---------------5p4h5---|---------------5p4h5---|
D |---2-------------|-0-------------------7-|-0-------------------7-|
A |-----------------|-----------------------|-----------------------|
E |-----------------|-----------------------|-----------------------|
                                                                     
e |---------1-------|-0---------------|-----------------|-----------------|
B |-0---1-------1---|-----------------|-----------------|-----------------|
G |---0---0---2---2-|---2-1-----------|-----------------|-----------------|
D |-----------------|-------3-2-0-----|-----------------|-----------------|
A |-----------------|-------------3-2-|-----------------|-----------------|
E |-----------------|-----------------|-----------------|-----------------|
Login or Register to remove this ad.