Ads

Tapion's Theme (Dragon Ball Z) Guitar Tab

Submitted: Jul 02, 2013 by TheDoomOfAllFires

3
Average: 3 (2 votes)
Download | Listen
Game: Dragon Ball Z
Composer(s): Bruce Faulconer, Shunsuke Kikuchi
Style: Arrangement
Series: Dragon Ball

AutoScroll: Slow | Medium | Fast
Title: Tapion's Theme
Artist: Shunsuke Kikuchi
Album: Dragon Ball Z - Wrath of the Dragon
Music: Shunsuke Kikuchi
Copyright: Shunsuke Kikuchi
Tabber: TheDoomOfAllFires
Tempo = 75
Steel Guitar

Standard tuning / Capo.2

I know I already posted a tab of this song (well, almost 5 years ago, haha), 
but here is a super ├╝ber simple version of this great theme from Shunsuke Kikuchi 
(and by the way, Bruce Faulconer music, used for the US version of DBZ, really SUCKS ASSES ! That being said, enjoy this tab ! :P)

E |----------------------------||-0-----------0--7--5--3----|
B |--------------------0--0----||----0-----0----------------|
G |----------------------------||o------0-------------------|
D |----------------------------||o--------------------------|
A |----------------------------||---------------------------|
E |----------------------------||-0-------------------------|


--5-----------0-----0--2----|--3-----------0--3--5--3----|
-----2-----2----------------|-----1-----1----------------|
--------2-------------------|--------0-------------------|
----------------------------|----------------------------|
--0-------------------------|--3-------------------------|
----------------------------|----------------------------|


--2-----------2-------------|--0-----------0--7--5--3----|
-----3-----3--------0--0----|-----0-----0----------------|
--------2-------------------|--------0-------------------|
----------------------------|----------------------------|
--2-------------------------|----------------------------|
----------------------------|--0-------------------------|


--5-----------0-----0--2----|--3--------3--2--2--0-------|
-----2-----2----------------|-----1-----------------3----|
--------2-------------------|--------0-------------------|
----------------------------|----------------------------|
--0-------------------------|--3-----------2-------------|
----------------------------|----------------------------|


--0------------------------||--0-----------12------------|----||
-----0-----0--------0--0---||-----0-----0--12------------|----||
--------0-----------------o||--------0-----12------------|----||
--------------2-----------o||----------------------------|----||
---------------------------||----------------------------|----||
--0------------------------||--0-----------0-------------|----||

Login or Register to remove this ad.