2 Player Vs. (Dr. Robotnik's Mean Bean Machine) Bass Tab

Submitted: Aug 07, 2009 by auriplane

0
Download | Listen
Game: Dr. Robotnik's Mean Bean Machine
Composer(s): David Javelosa
Style: Transcription
Series: Sonic the Hedgehog

AutoScroll: Slow | Medium | Fast
                       Dr. Robotnik's Mean Bean Machine - 2 Player Vs. BASS TAB
                                     Composed by David Javelosa

                              Tabbed by Auriplane ([email protected])




Repeat this part four times

     E  E  Q    S S S S Q       E  E  Q    S S S S E  E   
G||--------------------------|---------------------------|
D||--------7------7-L---7----|--------7------7-L---7--7--|
A||--------------------------|---------------------------|
E||--5--5-------5------------|--5--5-------5-------------|
B||--------------------------|---------------------------|



Repeat back to here

E  E  E  E  E  E  E  E   
||---------------------------|
||*--------------------------|
||---------7--------7--------|
||*--------------------------|
||---5--5-----5--5-----5--5--|


  E  E  E  E  E  E  E  E     E  E  E  E  E  E  E  E     E  E  E  E  E  E  E  E   
--------------------------|--------------------------|--------------------------|
--------------------------|--------5--------5--------|--------5--------5--------|
--------7--------7--------|--------------------------|--------------------------|
--------------------------|--3--3-----3--3-----3--3--|--3--3-----3--3-----3--3--|
--5--5-----5--5-----5--5--|--------------------------|--------------------------|


  E  E  E  E  E  E  E  E     E  E  E  E  E  E  E  E     E  E  E  E  E  E  E  E   
--------------------------|--------------------------|--------------------------|
--------------------------|--------------------------|--------5--------5--------|
--------7--------7--------|--------7--------7--------|--------------------------|
--------------------------|--------------------------|--3--3-----3--3-----3--3--|
--5--5-----5--5-----5--5--|--5--5-----5--5-----5--5--|--------------------------|


  E  E  E  E  E  E  E  E     E  E  E  E  E  E  E  E     E  E  E  E  E  E  E  E   
--------------------------|--------------------------|--------------------------|
--------------------------|--------------------------|--------------------------|
--------5--------5-----6--|--------7--------7--------|--------7--------7--------|
--------------------------|--------------------------|--------------------------|
--3--3-----3--3-----4-----|--5--5-----5--5-----5--5--|--5--5-----5--5-----5--5--|


  E  E  E  E  E  E  E  E     E  E  E  E  E  E  E  E     E  E  E  E  E  E  E  E   
--------------------------|--------------------------|--------------------------|
--------5--------5--------|--------5--------5--------|--------------------------|
--------------------------|--------------------------|--------7--------7--------|
--3--3-----3--3-----3--3--|--3--3-----3--3-----3--3--|--------------------------|
--------------------------|--------------------------|--5--5-----5--5-----5--5--|


  E  E  E  E  E  E  E  E     E  E  E  E  E  E  E  E     E  E  E  E  E  E  E  E   
--------------------------|--------------------------|--------------------------|
--------------------------|--------5--------5--------|--------------------------|
--------7--------7--------|--------------------------|--------5--------5-----6--|
--------------------------|--3--3-----3--3-----3--3--|--------------------------|
--5--5-----5--5-----5--5--|--------------------------|--3--3-----3--3-----4-----|


  E  E  E  E  E  E  E  E     E  E  E  E  E  E  E  E     E  E  E  E  E  E  E  E   
--------------------------|--------------------------|--------------------------|
--------------------------|--------------------------|--------5--------5--------|
--------7--------7--------|--------7--------7--------|--------------------------|
--------------------------|--------------------------|--3--3-----3--3-----3--3--|
--5--5-----5--5-----5--5--|--5--5-----5--5-----5--5--|--------------------------|


  E  E  E  E  E  E  E  E     E  E  E  E  E  E  E  E     E  E  E  E  E  E  E  E   
--------------------------|--------------------------|--------------------------|
--------5--------5--------|--------------------------|--------------------------|
--------------------------|--------7--------7--------|--------7--------7--------|
--3--3-----3--3-----3--3--|--------------------------|--------------------------|
--------------------------|--5--5-----5--5-----5--5--|--5--5-----5--5-----5--5--|


  E  E  E  E  E  E  E  E     E  E  E  E  E  E  E  E     E  E  E  E  E  E  E  E   
--------------------------|--------------------------|--------------------------|
--------5--------5--------|--------------------------|--------------------------|
--------------------------|--------5--------5-----6--|--------7--------7--------|
--3--3-----3--3-----3--3--|--------------------------|--------------------------|
--------------------------|--3--3-----3--3-----4-----|--5--5-----5--5-----5--5--|


  E  E  E  E  E  E  E  E     E  E  E  E  E  E  E  E     E  E  E  E  E  E  E  E   
--------------------------|--------------------------|--------------------------|
--------------------------|--------5--------5--------|--------5--------5--------|
--------7--------7--------|--------------------------|--------------------------|
--------------------------|--3--3-----3--3-----3--3--|--3--3-----3--3-----3--3--|
--5--5-----5--5-----5--5--|--------------------------|--------------------------|


  E  E  E  E  E  E  E  E     E  E  E  E  E  E  E  E     E  E  E  E  E  E  E  E   
--------------------------|--------------------------|--------------------------|
--------------------------|--------------------------|--------5--------5--------|
--------7--------7--------|--------7--------7--------|--------------------------|
--------------------------|--------------------------|--3--3-----3--3-----3--3--|
--5--5-----5--5-----5--5--|--5--5-----5--5-----5--5--|--------------------------|


  E  E  E  E  E  E  E  E     E  E.  E.  E.  E.  E     E  E.  E.  E.  E.  E   
--------------------------|------------------------|------------------------|
--------------------------|------------------------|------------------------|
--------5--------5-----6--|-----8---7---5----------|-----7---5--------------|
--------------------------|-----------------8---7--|-------------8---7---5--|
--3--3-----3--3-----4-----|------------------------|------------------------|


  E  E.  E.  E.  E.  E     E  E.  E.  E.  E.  E     
------------------------|-------------------------||
------------------------|------------------------*||
-----5------------------|-------------------------||
---------8---7---5------|-----8---7---5----------*||
---------------------8--|-----------------8---7---||




Duration Legend
---------------
W - whole
H - half
Q - quarter
E - 8th
S - 16th
T - 32nd
X - 64th
. - note dotted
|-n-|  - n-tuplets


Tablature Legend
----------------
L - tied note
Login or Register to remove this ad.