Login or Register to remove this ad.

Fever (Dr. Mario) Guitar Tab

Submitted: Jun 22, 2011 by Kabukibear (Last updated: Jun 22, 2011)

4.75
Average: 4.8 (16 votes)
Download | Listen
Game: Dr. Mario
Composer(s): Hirokazu Tanaka
Style: Arrangement, Fingerstyle, Natural harmonics
Series: Mario

AutoScroll: Slow | Medium | Fast

Fever                                       
~Dr. Mario~
Composed by: Hirokazu Tanaka
Arranged by: Justin Lincoln

Dropped D Tuning


     E  E  E  E  E  E  E  E     E  E  E  E  E  E  E  E   
E||--------------------------|--------------------------|
B||--------------------------|--------------------------|
G||--------------------------|--------------------------|
D||--------------0-----------|--------------0-----------|
A||--0--0--3--4-----4--3--2--|--0--0--3--4-----4--3--2--|
D||--------------------------|--------------------------|

     
  Segno                                       |--3--|      
  E  E  E  E  E  E  E  E     E  E  E  E  Q    S  S  S  E   
--------------------------|-------------------------------|
--1--2--1--2--0--------0--|--1--2--0----------------------|
-----------------2--2-----|-----------2--2----------------|
--------------------------|--------------0----------------|
--0--0--3--4--------------|--0--0--3--4-------------------|
--------------0--0--3--4--|-------------------7s-5s-3s-0--|


                             ^ v ^  ^ v ^  ^ v ^  ^ v ^   
  E  E  E  E  E  E  E  E     S S E  S S E  S S E  S S E   
--------------------------|------------------------------|
--1--2--1--2--0--------0--|--2-2-2--3-3-3--4-4-4--5-5-5--|
-----------------2--2-----|--2-2-2--2-2-2--2-2-2--2-2-2--|
--------------------------|------------------------------|
--0--0--3--4--------------|--0------2------3------4------|
--------------0--0--3--4--|------------------------------|


  E  E  E  E  E  E  E  E     E  E  E  E  Q    Q       E  E  E  E  E  E  E  E   
--------------------------|------------------------|--------------------------|
--1--2--1--2--0--------0--|--1--2--0---------------|--1--2--1--2--0--------0--|
-----------------2--2-----|-----------2--2---------|-----------------2--2-----|
--------------------------|------------------------|--------------------------|
--0--0--3--4--------------|--0--0--3--4------------|--0--0--3--4--------------|
--------------0--0--3--4--|--------------0---------|--------------0--0--3--4--|

   v      v     ^       v
    NH     NH     NH      NH                               
    Q      Q      Q       Q       E  E  E  E  E  E  E  E   
--<>5-----------<>7----<>12----|--1--2--1--2--0-----------|
--<>5----<>5----<>7----<>12----|-----------------3--3--0--|
--<>5----<>5----<>7----<>12----|--------------------------|
--<>5----<>5----<>7----<>12----|--0--0--3--4--------------|
---------<>5----<>7----<>12----|--------------------1--2--|
---------<>5----<>7----<>12----|--------------5--5--------|


  E  E  E  E  E  E  E  E     E  E  E  E  E  E  E  E     E  E  E  E  Q    Q     
--1--2--0-----------------|--1--2--1--2--0-----------|-----------0------------|
-----------3--3-----------|-----------------3--3--0--|-----0--2-----3----2----|
--------------0-----------|--------------------------|--1-----------2----0----|
--0--0--3--4-----------0--|--0--0--3--4--------------|------------------------|
-----------------1--2-----|--------------------1--2--|--------------0----0----|
--------------------------|--------------5--5--------|--2-----2---------------|


  E  E  E  E  Q    Q       E  E  E  E  Q    Q       E  E  E  E  E  E  E  E   
--1--2--0---------------|--1--2--0---------------|--1--2--1--2--0-----------|
-----------3--3---------|-----------3--3---------|-----------------3--3--0--|
--------------0---------|--------------0---------|--------------0--0--------|
--0--0--3--4-------5----|--0--0--3--4-------6----|--0--0--3--4--------------|
------------------------|------------------------|--------------------------|
-------------------5----|-------------------6----|--------------------2--2--|


  E  E  E  E  Q    Q       E  E  E  E  E  E  E  E     E  E  E  E  E  E  E  E   
--------0---------------|--2-----------0-----5-----|--------------------------|
--3-----------3---------|--------------------------|--3-----------------------|
-----2-----0------------|--------2--------2--L--2--|--------2-----------2-----|
--------------4---------|-----0-----0--------------|-----0-----0-----0-----0--|
--0-----0---------------|--------------4-----------|--2-----------0-----------|
--------------0---------|--0-----------------------|--------------------------|


  E  E  E  E   E  E   E  E     E  E  E  E  E  E  E  E   
--7------------------10-----|--------------------------|
--------0-----10------------|--8-----0--------0--------|
-----0-----0------7---L--7--|-----0-----7--6-----2--0--|
----------------------------|--------------------------|
---------------9------------|--7-----------0-----------|
--5-------------------------|--------------------------|


  E  E  E  E  E  E  E  E     E  E  E  E  E  E  E  E   
--2-----------0-----5-----|--------------------------|
--------------------------|--3-----------------------|
--------2--------2--L--2--|--------0-----------------|
-----0-----0--------------|-----0-----0--------4-----|
--------------4-----------|--2--------------5-----5--|
--0-----------------------|--------------7-----------|


  E  E  E  E   E  E  E  E      E  E  E  E  E  E  E  E   
--7------------------9-----|--10--------------------0--|
--------0-----10-----------|---------0--3--2-----2-----|
-----0-----0------7--L--7--|------0-----------2--------|
---------------------------|---------------------------|
---------------9-----------|---7-----------0-----------|
--5------------------------|---------------------------|


  E  E  E  E  Q    Q       E  E  E  E  Q    Q       E  E  E  E  E  E  E  E   
--1--2--0---------------|--1--2--0---------------|--1--2--1--2--0-----------|
-----------3--3---------|-----------3--3---------|-----------------3--3--0--|
--------------0---------|--------------0---------|--------------0--0--------|
--0--0--3--4-------5----|--0--0--3--4-------6----|--0--0--3--4--------------|
------------------------|------------------------|--------------------------|
-------------------5----|-------------------6----|--------------------2--2--|

                  fine
  E  E  E  E  Q    Q       E  E  E  E  E  E  E  E     E  E  E  E  E  E  E  E   
--------0---------------|--------------------------|--------------------------|
--3-----------3---------|--------------------------|--------------------------|
-----2-----0------------|--------------------------|--------------------------|
--------------4---------|--------------------------|--------------------------|
--0-----0---------------|-----------------------0--|-----------------------0--|
--------------0---------|--0--0--3--4--5--5--6-----|--0--0--3--4--5--5--6-----|


  E  E  E  E  E  E  E  E     E  E  E  E  E  E  E  E   
--------------------------|--------------------------|
--------------------------|--------------------------|
--------------------------|--------------------------|
--------------------------|--3--2--1--0--------------|
-----------------------0--|--------------4--3--2--1--|
--0--0--3--4--5--5--6-----|--------------------------|


  E  E  E  E  E  E  E  E     E  E  E  E  E  E  E  E   
--------------------------|--------------------------|
--------------------------|--------------------------|
--------------------------|--------------------------|
--------------------------|--------------------------|
-----------------------0--|-----------------------0--|
--0--0--3--4--5--5--6-----|--0--0--3--4--5--5--6-----|


  E  E  E  E  E  E  E  E     E  E  E  E  E  E  E  E     E  E  Q     
--------------------------|--------------------------|-------------|
--------------------------|--------------------------|-------------|
--------------------------|--------------------------|-------------|
--------------------------|--3--2--1--0--------------|-------------|
-----------------------0--|--------------4--3--2--1--|--0----------|
--0--0--3--4--5--5--6-----|--------------------------|-----6-------|

                               D.S. al fine
  E  E  Q       E  E  Q       Q    Q      
-------------|-------------|------------||
-------------|-------------|------------||
-------------|-------------|------------||
-------------|-------------|------------||
--0----------|--0----------|--1---------||
-----6-------|-----6-------|------------||




Duration Legend
---------------
W - whole
H - half
Q - quarter
E - 8th
S - 16th
T - 32nd
X - 64th
. - note dotted
|-n-|  - n-tuplets


Tablature Legend
----------------
L - tied note
x - dead note
g - grace note
(n) - ghost note
> - accentuded note
NH - natural harmonic
AH - artificial harmonic
TH - tapped harmonic
SH - semi harmonic
PH - pitch harmonic
h - hammer on
p - pull off
b - bend
br - bendRelease
pb - preBend
pbr - preBendRelease
brb - bendReleaseBend
\n/ - tremolo bar dip
\n - tremolo bar dive
-/n - tremolo bar Release up
/n\ - tremolo bar inverted dip
/n - tremolo bar return
-\n - tremolo bar Release down
S - shift slide
s - legato slide
/ -  slide into from below or out of upwards
\ -  slide into from above or out of downwards
~ - vibrato
W - wide vibrato
tr - trill
TP - tremolo picking
T - tapping
S - slap
P - pop
< - fade in
^ - brush up
v - brush down
Login or Register to remove this ad.

5 comments on Fever

yummm! :D

Wahaha, wonderful tab; brings back memory from a decade ago while i was on my Gameboy Color.
Wonder if my finger can move to the groove :P Hope it does! :D

oh my god

5

I fucking love you!

omg my childhood comes back

5

omg my childhood comes back **

I still have Dr. Mario on my

5

I still have Dr. Mario on my gameboy colour Pokemon edition.

Pretty fun, looking forward

5

Pretty fun, looking forward to practicing it up a bit. :D