Ads

The Imp's Song (Doom) Guitar Tab

Submitted: Mar 23, 2010 by RexLeRouge (Last updated: Mar 26, 2010)

3
Average: 3 (1 vote)
Download | Listen
Game: Doom
Composer(s): Bobby Prince
Style: Alternate picking, Transcription
Series: Doom

This song is also called E1M2

AutoScroll: Slow | Medium | Fast
                             E1M2: The Imp's song                               





Guitare                           Rest for 56 measures at the beginning


     Q    Q    Q    E  E     E  Q    Q    Q    E     Q    Q    Q    E  E   
e |-----------------------|-----------------------|-----------------------|
B |-----------------------|-----------------------|-----------------------|
G |--3----3----3----3--1--|--2--2----2----2----1--|--3----3----3----3--1--|
D |-----------------------|-----------------------|-----------------------|
A |-----------------------|-----------------------|-----------------------|
E |-----------------------|-----------------------|-----------------------|


  E  Q    Q    Q    E     Q    Q    Q    E  E     E  Q    Q    E  E  E   
-----------------------|-----------------------|------------------------|
-----------------------|-----------------------|------------------------|
--2--2----2----2----1--|--3----3----3----3--1--|--2--2----2----2--2--1--|
-----------------------|-----------------------|------------------------|
-----------------------|-----------------------|------------------------|
-----------------------|-----------------------|------------------------|


  Q    Q    Q    E  E     E  Q    Q    E  E  E     Q    Q    Q    E  E   
-----------------------|------------------------|-----------------------|
-----------------------|------------------------|--4----4----4----4--2--|
--3----3----3----3--1--|--2--2----2----1--2--1--|-----------------------|
-----------------------|------------------------|-----------------------|
-----------------------|------------------------|-----------------------|
-----------------------|------------------------|-----------------------|


  E  Q    Q    E  E  E     Q    Q    Q    E  E     E  Q    Q    Q    E   
------------------------|-----------------------|-----------------------|
--3--3----3----2--3--2--|--4----4----4----4--2--|--3--3----3----2----3--|
------------------------|-----------------------|-----------------------|
------------------------|-----------------------|-----------------------|
------------------------|-----------------------|-----------------------|
------------------------|-----------------------|-----------------------|


  Q    Q    Q    E  E     E  Q    E  E  E  Q       Q    Q    E  E  Q     
-----------------------|------------------------|-----------------------|
-----------------------|------------------------|-----------------------|
--3----3----3----3--1--|-----2----2--2--1--2----|--3----3----3--1--3----|
-----------------------|------------------------|-----------------------|
-----------------------|------------------------|-----------------------|
-----------------------|------------------------|-----------------------|


  E  E  E  E  E  E  E  E     E  Q    Q    Q    E     Q    Q    Q    E  E   
--------------------------|-----------------------|-----------------------|
--------------------------|--6--6----6----6----4--|--5----5----5----5--4--|
--2--1--2--1--2--1--2--1--|-----------------------|-----------------------|
--------------------------|-----------------------|-----------------------|
--------------------------|-----------------------|-----------------------|
--------------------------|-----------------------|-----------------------|


  E  Q    Q    Q    E     Q    Q    Q    E  E     E  Q    E  E  E  Q     
-----------------------|-----------------------|------------------------|
--4--4----4----4----2--|--3----3----3----3--2--|------------------------|
-----------------------|-----------------------|--3--3----3--3--1--3----|
-----------------------|-----------------------|------------------------|
-----------------------|-----------------------|------------------------|
-----------------------|-----------------------|------------------------|


  Q    Q    E  E  Q       Q    Q    Q    Q       E  E  E  E  E  E  E  E    
-----------------------|----------------------|--------------------------||
-----------------------|----------------------|-----6-----6-----6--6--6--||
--2----2----2--1--2----|--3----3----3----3----|--------------------------||
-----------------------|----------------------|--------------------------||
-----------------------|----------------------|--------------------------||
-----------------------|----------------------|--------------------------||




Duration Legend
---------------
W - whole
H - half
Q - quarter
E - 8th
S - 16th
T - 32nd
X - 64th
. - note dotted
|-n-|  - n-tuplets


Tablature Legend
----------------
L - tied note
x - dead note
g - grace note
(n) - ghost note
> - accentuded note
NH - natural harmonic
AH - artificial harmonic
TH - tapped harmonic
SH - semi harmonic
PH - pitch harmonic
h - hammer on
p - pull off
b - bend
br - bendRelease
pb - preBend
pbr - preBendRelease
brb - bendReleaseBend
\n/ - tremolo bar dip
\n - tremolo bar dive
-/n - tremolo bar Release up
/n\ - tremolo bar inverted dip
/n - tremolo bar return
-\n - tremolo bar Release down
S - shift slide
s - legato slide
/ -  slide into from below or out of upwards
\ -  slide into from above or out of downwards
~ - vibrato
W - wide vibrato
tr - trill
TP - tremolo picking
T - tapping
S - slap
P - pop
< - fade in
^ - brush up
v - brush down
Login or Register to remove this ad.