Ads

King K. Rool (Donkey Kong Country) Guitar Tab

Submitted: Jul 26, 2010 by soundsandstuff

5
Average: 5 (3 votes)
Download | Listen
Game: Donkey Kong Country
Composer(s): Dave Wise, Robin Beanland, Eveline Fischer
Style: Transcription
Series: Donkey Kong

Click here for a video example.

AutoScroll: Slow | Medium | Fast
Donkey Kong Country - King K. Rool
Platform: Super Nintendo Entertainment System/SNES, Wii Virtual Console
Developer/Publisher: Nintendo, Rare
Composed by: David Wise
	     Eveline Fischer
	     Robin Beanland	


Electric Guitar Tab Created By: soundsandstuff channel www.youtube.com/user/soundsandstuff
Completed on: 7/20/10


Standard Tuning
================================================================================================================ 

Part A
E|--------------------------|-------------------------------16/17----------------|
B|--------------------18-17-|----------17-18-17----17-18-------------18----------|
G|--------------------------|-19-17-19----------19-------------------------------|
D|--------------------------|----------------------------------------------------|
A|--------------------------|----------------------------------------------------|
E|--------------------------|----------------------------------------------------|


E|-18/20-L-20--18------------------|-17----17----17----17----17----17-18-20--17--|
B|---------------------------------|----------20----------20----20---------------|
G|---------------------------------|---------------------------------------------|
D|---------------------------------|---------------------------------------------|
A|---------------------------------|---------------------------------------------|
E|---------------------------------|---------------------------------------------|


E|-------------------------------------17------|-17----17----17----17----17----17-18-20-18-17----|
B|-18----18-17-18----18-17-18-17-18-20-----18--|----------20----------20----20----------------20-|
G|---------------------------------------------|-------------------------------------------------|
D|---------------------------------------------|-------------------------------------------------|
A|---------------------------------------------|-------------------------------------------------|
E|---------------------------------------------|-------------------------------------------------|



							       Part B			
E|-------------------------------16/17----------------|-------|---------------------------------------------|
B|----------17-18-17----17-18-------------18----------|-17b---|----------------------------------17-18------|
G|-19-17-19----------19-------------------------------|-------|-19----19-17-19----19-17-19-17-19--------19--|
D|----------------------------------------------------|-------|---------------------------------------------|
A|----------------------------------------------------|-------|---------------------------------------------|
E|----------------------------------------------------|-------|---------------------------------------------|


E|-------------------------------17-18-17----------|---------------------------------------------|
B|----------------------------------------20-18-17-|----------------------------------17-18------|
G|-17----17----17----------17----------------------|-19----19-17-19----19-17-19-17-19--------19--|
D|----------20----20-19-20-------------------------|---------------------------------------------|
A|-------------------------------------------------|---------------------------------------------|
E|-------------------------------------------------|---------------------------------------------|


E|---------------------------------17----------|-------------------------------------17------|
B|----------17-18------20-18-17-18----20-18-17-|-18----18-17-18----18-17-18-17-18-20-----18--|
G|-19-17-19--------19--------------------------|---------------------------------------------|
D|---------------------------------------------|---------------------------------------------|
A|---------------------------------------------|---------------------------------------------|
E|---------------------------------------------|---------------------------------------------|


E|---------------------------------------------|--------|--------|--------|--------|
B|----------------------------------17-18------|--------|--------|--------|--------|
G|-19----19-17-19----19-17-19-17-19--------19--|--------|--------|--------|--------|
D|---------------------------------------------|--------|--------|--------|--------|
A|---------------------------------------------|--------|--------|--------|--------|
E|---------------------------------------------|--------|--------|--------|--------|


		    Part C Use Slider (See Notes)
E|--------|--------|-17--L-17-S-20---|----------S-17---|-15--L-15--------|--------|
B|--------|--------|-----------------|-18--L-18--------|------------17-S-|-15-----|
G|--------|--------|-----------------|-----------------|-----------------|--------|
D|--------|--------|-----------------|-----------------|-----------------|--------|
A|--------|--------|-----------------|-----------------|-----------------|--------|
E|--------|--------|-----------------|-----------------|-----------------|--------|


E|-17--L-17-S-20---|----------S-20---|------------20-S-|-22-----|-17--L-17-S-20---|
B|-----------------|-18--L-18--------|-17--L-17--------|--------|-----------------|
G|-----------------|-----------------|-----------------|--------|-----------------|
D|-----------------|-----------------|-----------------|--------|-----------------|
A|-----------------|-----------------|-----------------|--------|-----------------|
E|-----------------|-----------------|-----------------|--------|-----------------|


						Part D Use Volume Knob (See Notes)
E|----------S-20---|------------20-S-|-22-----|--------|--------|--------|--------|
B|-18--L-18--------|-17--L-17--------|--------|-18k----|--------|--------|--------|
G|-----------------|-----------------|--------|--------|--------|--------|--------|
D|-----------------|-----------------|--------|--------|--------|--------|--------|
A|-----------------|-----------------|--------|--------|--------|--------|--------|
E|-----------------|-----------------|--------|--------|--------|--------|--------|

				      Part E	
E|-22k----|--------|--------|--------|----------------------------------------20-----|
B|--------|--------|--------|--------|-22----22-20-22----22-20-22-20-22-20-22--------|
G|--------|--------|--------|--------|-----------------------------------------------|
D|--------|--------|--------|--------|-----------------------------------------------|
A|--------|--------|--------|--------|-----------------------------------------------|
E|--------|--------|--------|--------|-----------------------------------------------|


E|----------------------------------------20-----|---------------------------------------------|
B|-18----18-17-18----18-17-18-17-18-17-18--------|-20----20-18-20----20-18-20-18-20-18-20b-20b-|
G|-----------------------------------------------|---------------------------------------------|
D|-----------------------------------------------|---------------------------------------------|
A|-----------------------------------------------|---------------------------------------------|
E|-----------------------------------------------|---------------------------------------------|

							   		
E|--------|----------------------------------------20-----|----------------------------------------20-----|
B|-20b----|-22----22-20-22----22-20-22-20-22-20-22--------|-18----18-17-18----18-17-18-17-18-17-18--------|
G|--------|-----------------------------------------------|-----------------------------------------------|
D|--------|-----------------------------------------------|-----------------------------------------------|
A|--------|-----------------------------------------------|-----------------------------------------------|
E|--------|-----------------------------------------------|-----------------------------------------------|

							 Part F Use Volume Knob (See Notes)
E|---------------------------------------------|--------|--------|--------|--------|
B|-20----20-18-20----20-18-20-18-20-18-20b-20b-|-20b----|-18k----|--------|--------|
G|---------------------------------------------|--------|--------|--------|--------|
D|---------------------------------------------|--------|--------|--------|--------|
A|---------------------------------------------|--------|--------|--------|--------|
E|---------------------------------------------|--------|--------|--------|--------|


E|--------|-22k----|--------|--------|--------|
B|--------|--------|--------|--------|--------|
G|--------|--------|--------|--------|--------|
D|--------|--------|--------|--------|--------|
A|--------|--------|--------|--------|--------|
E|--------|--------|--------|--------|--------|
================================================================================================================ 

Notes:
- L = tied note
  / = normal slide
  b = bend
  
  S = Use a Slider to connect the notes
  k = Use the Volume Knob to create a fading increasing decreasing volume note effect.  Turn the volume all the way down, play the   note, then turn the volume up.

- Thank you for playing!
Login or Register to remove this ad.