Nuts and Bolts (Donkey Kong Country 3) Guitar Tab

Submitted: Jun 15, 2009 by RexLeRouge (Last updated: Jun 15, 2009)

3
Average: 3 (2 votes)
Download | Listen
Game: Donkey Kong Country 3
Composer(s): Dave Wise
Style: Transcription
Series: Donkey Kong

Click here for a video example.

AutoScroll: Slow | Medium | Fast
Donkey Kong Country 3 - Nuts and Bolts

Composed by: Dave Wise
Tabbed by: RexLeRouge                                  


This tab contains the Melodie and Rhythm for guitar the Bass tab can me found Here


Guitare Mélodie
      W                   W                   W                 
E||--------------------|-------------------|-------------------|
B||--------------------|-------------------|-------------------|
G||*-------------------|-------------------|-------------------|
D||*-------------------|-------------------|-------------------|
A||--------------------|-------------------|-------------------|
E||--------------------|-------------------|-------------------|


  W                   W                   W                   W                 
-------------------|-------------------|-------------------|-------------------|
-------------------|-------------------|-------------------|-------------------|
-------------------|-------------------|-------------------|-------------------|
-------------------|-------------------|-------------------|-------------------|
-------------------|-------------------|-------------------|-------------------|
-------------------|-------------------|-------------------|-------------------|


                                                       <        
  W                   W                   H        E   Q.       
-------------------|-------------------|-----------------------|
-------------------|-------------------|--------------12-------|
-------------------|-------------------|-----------------------|
-------------------|-------------------|---------------9~------|
-------------------|-------------------|-----------------------|
-------------------|-------------------|-----------------------|


  W                   W                 
-------------------|-------------------|
--L----------------|--L----------------|
-------------------|-------------------|
--L----------------|--L----------------|
-------------------|-------------------|
-------------------|-------------------|


   |--6--|  |--6--|  |--6--|  |--6--|  |--6--|  |--6--|  |--6--|  |--6--|  
   S  S  S  S  S  S  S  S  S  S  S  S  S  S  S  S  S  S  S  S  S  S  S  S  
-----------13-12-10----------13-12-10----------13-12-10----------13-12-10-|
--12-10-12----------12-10-12----------12-10-12----------12-10-12----------|
--------------------------------------------------------------------------|
--------------------------------------------------------------------------|
--------------------------------------------------------------------------|
--------------------------------------------------------------------------|


   |--6--|  |--6--|  |--6--|  |--6--| |-6-|  |-6-| |-6-|  |-6-|  
   S  S  S  S  S  S  S  S  S  S  S  S S S S  S S S S S S  S S S  
-----------13-12-10----------13-12-10---------------------------|
--12-10-12----------12-10-12------------------------------------|
--------------------------------------------10-9-7-------10-9-7-|
--------------------------------------9-7-9--------9-7-9--------|
----------------------------------------------------------------|
----------------------------------------------------------------|


  W                    W                   W                 
--------------------|-------------------|-------------------|
--------------------|-------------------|-------------------|
--------------------|-------------------|-------------------|
--7b----------------|--L----------------|-------------------|
--------------------|-------------------|-------------------|
--------------------|-------------------|-------------------|


  W                   W                   W                   W                 
-------------------|-------------------|-------------------|-------------------|
-------------------|-------------------|-------------------|-------------------|
-------------------|-------------------|-------------------|-------------------|
-------------------|-------------------|-------------------|-------------------|
-------------------|-------------------|-------------------|-------------------|
-------------------|-------------------|-------------------|-------------------|


  W                   W                   W                   
-------------------|-------------------|--------------------||
-------------------|-------------------|--------------------||
-------------------|-------------------|-------------------*||
-------------------|-------------------|-------------------*||
-------------------|-------------------|--------------------||
-------------------|-------------------|--------------------||


                     

                        ~Rhythm~


Guitare
      W                   W                   W                 
E||--------------------|-------------------|-------------------|
B||--------------------|-------------------|-------------------|
G||*-------------------|-------------------|-------------------|
D||*-------------------|-------------------|-------------------|
A||--------------------|-------------------|-------------------|
E||--------------------|-------------------|-------------------|


  W                   E  E  E  E  E  E  E  E      E   E  E   E   E   E  E   E   
-------------------|--------------------------|--------------------------------|
-------------------|--------------------------|--------------------------------|
-------------------|--------------------------|--------------------------------|
-------------------|--9--9-----9--9--9-----9--|--10--10-----10--10--10-----10--|
-------------------|--9--9-----9--9--9-----9--|---9---9------9---9---9------9--|
-------------------|--7--7-----7--7--7-----7--|---7---7------7---7---7------7--|


  E  E  E  E  E  E  E  E      E   E  E   E   E   E  E   E     W                 
--------------------------|--------------------------------|-------------------|
--------------------------|--------------------------------|-------------------|
--9--9-----9--9--9-----9--|--11--11-----11--11--11-----11--|-------------------|
--------------------------|--------------------------------|--9----------------|
--9--9-----9--9--9-----9--|---9---9------9---9---9------9--|--9----------------|
--7--7-----7--7--7-----7--|---7---7------7---7---7------7--|--7----------------|


  W                   W                   W                 
-------------------|-------------------|-------------------|
-------------------|-------------------|-------------------|
-------------------|-------------------|-------------------|
--L----------------|--L----------------|--L----------------|
--L----------------|--L----------------|--L----------------|
--L----------------|--L----------------|--L----------------|


  H.           Q       H        E  S S S E  S    W                 
--------------------|-------------------------|-------------------|
--------------------|-------------------------|-------------------|
--------------------|-------------------------|-------------------|
--9------------7----|--9-----------9-9---7----|--5----------------|
--9------------7----|--9-----------9-9---7----|--5----------------|
--7------------5----|--7-----------7-7---5----|--3----------------|


  E  S S E  E  E  S S E  E     W                   W                 
----------------------------|-------------------|-------------------|
----------------------------|-------------------|-------------------|
----------------------------|-------------------|-------------------|
-----5-5----5-----5-5----7--|--9----------------|--L----------------|
-----5-5----5-----5-5----7--|--9----------------|--L----------------|
-----3-3----3-----3-3----5--|--7----------------|--L----------------|


  W                   W                 
-------------------|-------------------|
-------------------|-------------------|
-------------------|-------------------|
-------------------|-------------------|
-------------------|-------------------|
-------------------|-------------------|


   PM PM PM PM    PM  PM  PM  PM PM PM PM    PM  PM  PM  
   S  S  S  S  S  S   S   S   S  S  S  S  S  S   S   S   
--------------------------------------------------------|
--------------------------------------------------------|
--------------------------------------------------------|
------9--7--9----(9)-(7)-(9)-----9--7--9----(9)-(7)-(9)-|
--------------------------------------------------------|
--(7)------------------------(7)------------------------|


   PM PM PM PM    PM  PM  PM  PM PM PM PM    PM  PM  PM  
   S  S  S  S  S  S   S   S   S  S  S  S  S  S   S   S   
--------------------------------------------------------|
--------------------------------------------------------|
--------------------------------------------------------|
------9--7--9----(9)-(7)-(9)-----9--7--9----(9)-(7)-(9)-|
--------------------------------------------------------|
--(7)------------------------(7)------------------------|


   PM PM PM PM    PM  PM  PM  PM PM PM PM    PM  PM  PM  
   S  S  S  S  S  S   S   S   S  S  S  S  S  S   S   S   
--------------------------------------------------------|
--------------------------------------------------------|
--------------------------------------------------------|
------9--7--9----(9)-(7)-(9)-----9--7--9----(9)-(7)-(9)-|
--------------------------------------------------------|
--(7)------------------------(7)------------------------|


   PM PM PM PM    PM  PM  PM  PM PM PM PM    PM  PM  PM    
   S  S  S  S  S  S   S   S   S  S  S  S  S  S   S   S     
---------------------------------------------------------||
---------------------------------------------------------||
--------------------------------------------------------*||
------9--7--9----(9)-(7)-(9)-----9--7--9----(9)-(7)-(9)-*||
---------------------------------------------------------||
--(7)------------------------(7)-------------------------||




Duration Legend
---------------
W - whole
H - half
Q - quarter
E - 8th
S - 16th
T - 32nd
X - 64th
. - note dotted
|-n-|  - n-tuplets


Tablature Legend
----------------
L - tied note
x - dead note
g - grace note
(n) - ghost note
> - accentuded note
NH - natural harmonic
AH - artificial harmonic
TH - tapped harmonic
SH - semi harmonic
PH - pitch harmonic
h - hammer on
p - pull off
b - bend
br - bendRelease
pb - preBend
pbr - preBendRelease
brb - bendReleaseBend
\n/ - tremolo bar dip
\n - tremolo bar dive
-/n - tremolo bar Release up
/n\ - tremolo bar inverted dip
/n - tremolo bar return
-\n - tremolo bar Release down
S - shift slide
s - legato slide
/ -  slide into from below or out of upwards
\ -  slide into from above or out of downwards
~ - vibrato
W - wide vibrato
tr - trill
TP - tremolo picking
T - tapping
S - slap
P - pop
< - fade in
^ - brush up
v - brush down
Login or Register to remove this ad.